Oops, an error
Loading. Please wait.

Antukin Tab

version 4
version 4

Whole song

2,112 views 6 this week
no commentswrite comment
1 2 3 4 5
please rate
add to favorites
launch autoscroll
font size
0
reset
how to read this tab
guitar tuner
Autoscroll
slow
fast
+/-
esc
set tempo
stop
Help us to improve Ultimate-Guitar.com Take our survey!
×
Contributor
Difficulty
novice
Title: Antukin
Artist: Rico Blanco
Album: Your Universe
Tabbed by: Cris Ronel Evangelista (Muntinlupa)

For any comments and Suggestion:

Text Me: 09225402682
Friendster: cris_ronel111788@yahoo.com

Tuning: Standard


i think this is 100% correct


Guitar 1:

e-----------------------------------|----------------|
b-----------------------------------|----------------|
g-----55-----------55---------55----|--55---------55-|
D---55---55------55---55----55--55--|-----55---22----|
A-33---------55---------------------|----------------|
E--------------------------55-------|----------------|


Verse:

Iniwan ka na ng eroplano

e-----------------------------------|----------------|
b-----------------------------------|----------------|
g-----55-----------55---------55----|--55---------55-|
D---55---55------55---55----55--55--|-----55---22----|
A-33---------55---------------------|----------------|
E--------------------------55-------|----------------|


Ok lang baby wag kang magbago         

e-----------------------------------|----------------|
b-----------------------------------|----------------|
g-----55-----------55---------55----|--55---------55-|
D---55---55------55---55----55--55--|-----55---22----|
A-33---------55---------------------|----------------|
E--------------------------55-------|----------------|


Dito ka lang humiling sa akin piling

e-----------------------------------|----------------|
b-----------------------------------|----------------|
g-----55-----------55---------55----|--55---------55-|
D---55---55------55---55----55--55--|-----55---22----|
A-33---------55---------------------|----------------|
E--------------------------55-------|----------------|

Antukin
  F       Dm  
e|1--------1------|
b|1--------3------|
g|2--------2------|
D|3---------------|
A|3---------------|
E|1---------------|


Kukupkupin nalang kita

e-----------------------------------|----------------|
b-----------------------------------|----------------|
g-----55-----------55---------55----|--55---------55-|
D---55---55------55---55----55--55--|-----55---22----|
A-33---------55---------------------|----------------|
E--------------------------55-------|----------------|


sorry wala ka ng magagawa
         

e-----------------------------------|----------------|
b-----------------------------------|----------------|
g-----55-----------55---------55----|--55---------55-|
D---55---55------55---55----55--55--|-----55---22----|
A-33---------55---------------------|----------------|
E--------------------------55-------|----------------|


Mahalin mo nalang ako ng sobra-sobra


e-----------------------------------|----------------|
b-----------------------------------|----------------|
g-----55-----------55---------55----|--55---------55-|
D---55---55------55---55----55--55--|-----55---22----|
A-33---------55---------------------|----------------|
E--------------------------55-------|----------------|

Para patas naman tayo diba?

  F       Dm
e|1--------1------|
b|1--------3------|
g|2--------2------|
D|3---------------|
A|3---------------|
E|1---------------|


Chorus:

                C       G     Dm  
Sasalubungin natin ang kinabukasan
             C        G      Dm  
Nang Walang takot at walang pangamba
           C         G         Dm
Tadhana meron tip na makapangyarihan
     F       
Kung ayaw may dahilan,
       Dm               
Kung gusto palaging mayroon paraan


oohhhh...

e-----------------------------------|----------------|
b-----------------------------------|----------------|
g-----55-----------55---------55----|--55---------55-|
D---55---55------55---55----55--55--|-----55---22----|
A-33---------55---------------------|----------------|
E--------------------------55-------|----------------|




Pinaiyak ka ng manghuhula

e-----------------------------------|----------------|
b-----------------------------------|----------------|
g-----55-----------55---------55----|--55---------55-|
D---55---55------55---55----55--55--|-----55---22----|
A-33---------55---------------------|----------------|
E--------------------------55-------|----------------|


hindi na raw tayong magkasamang  tatanda
         

e-----------------------------------|----------------|
b-----------------------------------|----------------|
g-----55-----------55---------55----|--55---------55-|
D---55---55------55---55----55--55--|-----55---22----|
A-33---------55---------------------|----------------|
E--------------------------55-------|----------------|


Buti nalang meron langit na nagtatangol

e-----------------------------------|----------------|
b-----------------------------------|----------------|
g-----55-----------55---------55----|--55---------55-|
D---55---55------55---55----55--55--|-----55---22----|
A-33---------55---------------------|----------------|
E--------------------------55-------|----------------|

sa pag-ibig naposigido at matiyaga 

  F       Dm
e|1--------1------|
b|1--------3------|
g|2--------2------|
D|3---------------|
A|3---------------|
E|1---------------|



Chorus:

                C       G     Dm  
Sasalubungin natin ang kinabukasan
             C        G      Dm  
Nang Walang takot at walang pangamba
           C         G         Dm
Tadhana meron tip na makapangyarihan
     F       
Kung ayaw may dahilan,
       Dm               
Kung gusto palaging mayroon paraan


Bridge:

Am            E7             C               Dm
Long,as we stand us one,ano man ang ating makabangga aahh,..
Am             E7            F        
Nothing will ever break us, wala talaga..as in wala.

Adlib: C-Dm-Am then F-Dm

(Do Chorus Chords)       
Sasalubungin natin ang kinabukasan
Nang Walang takot at walang pangamba
Tadhana meron tip na makapangyarihan
Kung ayaw may dahilan,
Kung gusto ay hahalikan nalang natin
ang kinabukasan ng buong loob at yayakapin pa
Tadhana mejo over-raded
Kung ayaw may dahilan,
Kung may gusto palaging may paraan

Gumawa nalang tayo ng paraan 

e-----------------------------------|----------------|
b-----------------------------------|----------------|
g-----55-----------55---------55----|--55---------55-|
D---55---55------55---55----55--55--|-----55---22----|
A-33---------55---------------------|----------------|
E--------------------------55-------|----------------|
Gumawa nalang tayo ng baby

e-----------------------------------|----------------|
b-----------------------------------|----------------|
g-----55-----------55---------55----|--55---------55-|
D---55---55------55---55----55--55--|-----55---22----|
A-33---------55---------------------|----------------|
E--------------------------55-------|----------------|

Gumawa nalang tayo ng paraan

e-----------------------------------|----------------|
b-----------------------------------|----------------|
g-----55-----------55---------55----|--55---------55-|
D---55---55------55---55----55--55--|-----55---22----|
A-33---------55---------------------|----------------|
E--------------------------55-------|----------------|
comments
We did not receive enough feedback on this tab! Please rate:
print report bad tab
1 2 3 4 5
I want to post or [tab]
guest
You may want to rate the tab now too:
select rating
Please do not post tabs as comments. Select "correction" instead!