Oops, an error
Loading. Please wait.

Gwapo Ako Tab

1,023 views 1 this week
no commentswrite comment
1 2 3 4 5
please rate
add to favorites
launch autoscroll
font size
0
reset
how to read this tab
guitar tuner
Autoscroll
slow
fast
+/-
esc
set tempo
stop
Help us to improve Ultimate-Guitar.com Take our survey!
×
Author
Title: Gwapo ako
Artist: Sound like Rico Blanco e
Album: "Musika sa Bahay ni Kuya"
Tabber: Rodel F. Fariñas (Olongapo)
Friendster account: rain_aien0502@yahoo.com
Contact #: 09196998754
Company: Absolute Service, Inc. (SBFZ)
Date: May 28, 2008

Intro: A-E-F#m-D-E (4x)

e---------------------------------------------I
b---------------------------------------------I
g---------------------------------------------I
d-----------------------------7777-9999-99----I
a--7777777--2222222--4444444--5555-7777-77----I
E--5555555--0000000--2222222------------------I

e---------------------------------------------I
b---------------------------------------------I
g---------------------------------------------I
d-----------------------------7777-9999-------I
a--7777777--2222222--4444444--5555-7777-------I
E--5555555--0000000--2222222------------------I

(repeat while playing the adlib below)

e-------------------------------------------------------I
b--10-12-/1414-12\10-12/14--10-12-/1414/12\10-15-14-10--I
g-------------------------------------------------------I
d-------------------------------------------------------I
a-------------------------------------------------------I
E-------------------------------------------------------I

e--------------------------121412--------------------p12-------I
b--10-12-/1414-12/10-10-12---------10-12-/1414-12\10-----10----I
g--------------------------------------------------------------I
d--------------------------------------------------------------I
a--------------------------------------------------------------I
E--------------------------------------------------------------I

Verse:

e----------------------------------------------------------------I
b----------------------------------------------------------------I
g----------------------------------------------------------------I
d-----------------------7777-9999-----------------------7777-9---I
a--777x77-222x22-444x44-5555-7777--777x77-222x22-444x44-5555-7---I
E--555x55-000x00-222x22------------555x55-000x00-222x22----------I

A      E                  F#m
Sabi nila mukha raw akong adik
       D             E
Eh, di adik na kung adik
A      E                F#m
Di ba nila alam kong bakit
 D               E
Kulang lang sa tulog ako

ref:

e--------------------------------------------------------------------I
b--------------------------------------------------------------------I
g--------------------------------------------------------------------I
d---------------------------------------------------7777777-9999999--I
a---4444444-2222222-4444444-2222222-4444444-2222222-5555555-7777777--I
E---2222222-0000000-2222222-0000000-2222222-0000000------------------I

e-------------I
b-------------I
g-------------I
d-------------I
a-------------I
E--00-024-45--I

F#m      E
Magkita tayo bukas
F#m      E
Papatunayan kong mali kayo
F#m   E           D            E   (F#m,G#m,A)
Di lahat ng lumalabas sa tv ay totoo

koro:

e---------------------------------------------I
b---------------------------------------------I
g---------------------------------------------I
d-----------------------------7777-9999-------I
a--7777777--2222222--4444444--5555-7777-------I
E--5555555--0000000--2222222------------------I
(2x)

e----------------------------------------------I
b----------------------------------------------I
g----------------------------------------------I
d------------------------------------7(hold)---I
a---4444444-2222222-4444444-2222222--5(hold)---I
E---2222222-0000000-2222222-0000000------------I

A        E         F#m
Pasensya na, di kasi sanay
      D     E
sa harap ng camera
A      E          F#m
Nakaktuwa ngunit ganun talaga
      D       E
ang aking problema
F#m              E
Di naman sa nagyayabang ako
F#m          E
Ito lang talaga ang totoo
 D(hold)            A-E-F#m-D-E
Gwapo ako sa personal

A       E               F#m
Tawag nila sa akin ay zombie
 D           E
Sino ang may sabi
A          E                 F#m
Bakit nga ba kay dali nyong maniwala
 D            E
Alam nyo na showbiz lang yon

Ref:
F#m      E
Magkita tayo bukas
F#m     E
Maniniwala ka tama din ako
F#m   E           D            E   (F#m,G#m,A)
Di lahat ng lumalabas sa tv ay totoo

Koro:
A        E         F#m
Pasensya na, di kasi sanay
      D     E
sa harap ng camera
A      E          F#m
Nakaktuwa ngunit ganun talaga
      D       E
ang aking problema
F#m              E
Di naman sa nagyayabang ako
F#m          E
Ito lang talaga ang totoo
 D(hold)            A-E-F#m-D-E
Gwapo ako sa personal

e----------------------------------------------------------I
b--10-12-/1414-12\10-12/14--10-12-/1414-12\10--p15--p17----I
g----------------------------------------------------------I
d----------------------------------------------------------I
a----------------------------------------------------------I
E----------------------------------------------------------I

A      E                 F#m
Sabi nila taba ko raw sa tv
   D             E
Payatot ang may sabi
A          E               F#m
Kung sa bagay di ko yan kasalanan
  D               E
Tsabi lang nang kaunti ako

ref:
F#m      E
Magkita tayo bukas
F#m      E
Papatunayan kong mali kayo
F#m   E           D            E   (F#m,G#m,A)
Di lahat ng lumalabas sa tv ay totoo

Koro:
A        E         F#m
Pasensya na, di kasi sanay
      D     E
sa harap ng camera
A      E          F#m
Nakaktuwa ngunit ganun talaga
      D       E
ang aking problema
F#m              E
Di naman sa nagyayabang ako
F#m          E
Ito lang talaga ang totoo
 D(hold)            adlib
Gwapo ako sa personal

adlib: A-E-F#m-D-E (2x)

e-------------------------------------------------------I
b--10-12-/1414-12\10-12/14--10-12-/1414/12\10-15-14-10--I
g-------------------------------------------------------I
d-------------------------------------------------------I
a-------------------------------------------------------I
E-------------------------------------------------------I

e--------------------------121412--------------------p12-------I
b--10-12-/1414-12/10-10-12---------10-12-/1414-12\10-----10----I
g--------------------------------------------------------------I
d--------------------------------------------------------------I
a--------------------------------------------------------------I
E--------------------------------------------------------------I

A         E              F#m
Comment nila sa akin ay pangit
  D            E
Pangit na kung pangit
A          E                  F#m
Bilis nyo naman maniwala sa tismis
D            E
Marami lang naiinggit

Ref:
F#m      E
Magkita tayo bukas
F#m     E
Maniniwala ka tama din ako
F#m   E           D            E   (F#m,G#m,A)
Di lahat ng lumalabas sa tv ay totoo

Koro:
A        E         F#m
Pasensya na, di kasi sanay
      D     E
sa harap ng camera
A      E          F#m
Nakaktuwa ngunit ganun talaga
      D       E
ang aking problema
F#m              E
Di naman sa nagyayabang ako
F#m          E
Ito lang talaga ang totoo
 D          D
Gwapo ako, gwapo ako
  D         D                A(hold)
gwapo ako, gwapo ako sa personal

[enjoy!]
[end]
Suggest correction
What's this?
You can suggest a correction to this tab. Community and Mods will review your correction and vote to approve or reject it.
comments
We did not receive enough feedback on this tab! Please rate:
print report bad tab
1 2 3 4 5
guest
You may want to rate the tab now too:
select rating
Please do not post tabs as comments. Select "correction" instead!