Oops, an error
Loading. Please wait.

Videoke Queen bass

version 1
version 1

Whole song

  • I've simplified some areas because the bassist does a lot of improv in the song.

Interactive

166 views 1 this week
no commentswrite comment
1 2 3 4 5
3 more votes to show rating
add to favorites
×
Save as Personal and add changes to this tab that will be seen only by you. Learn more ›
×
You can save this tab as Personal to edit and correct it or add notes. All changes will be seen only by you. Learn more »
launch autoscroll
font size
0
reset
guitar tuner
edit
Autoscroll
slow
fast
+/-
esc
set tempo
stop
Author
Difficulty
About this tab version
I've simplified some areas because the bassist does a lot of improv in the song. Was this info helpful? Yes No
Title: Videoke Queen
Artist: Rico Blanco
Album: Dating Gawi
Tabbed by: Panji Brotoisworo

I've converted my Guitar Pro 6 tab into text for people who don't have Guitar Pro 6.

The timestamps are referencing their official music video:
https://www.youtube.com/watch?v=NcNF58w7qfQ

Tuning: EADG

[INTRO]
G |----|-------|-------|----------|
D |----|-------|-------|----------|
A |----|--3----|--1----|----------|
E |----|-------|-------|--1/4-----|

[VERSE 1] (0:21)
The bassist does a lot of improvs a lot on this song.
I tried my best to tab it out. If it's too hard, just play
a simple bass line.
G |----|----|----------------------------|
D |----|----|----------------------------|
A |----|----|--1-----------1.-1----------|
E |----|----|----------------------------|

G |----------------------------|-----2-----4-----5-----9----|
D |----------------------------|----------------------------|
A |--1-----------1.-1----------|--0-----2-----3-----7-------|
E |----------------------------|----------------------------|

G |-----2-----4-----5-----9----|----------------------------|
D |----------------------------|----------------------------|
A |--0-----2-----3-----7-------|----------------------------|
E |----------------------------|--1--1--------1--1----------|

G |----------------------------|----------------------------|
D |----------------------------|----------------------------|
A |----------------------------|--3.-3.-3.-3.-3.-3.-3.-3.---|
E |--1--1--------1--1----------|----------------------------|

G |----------------------------------------------------|
D |----------------------------------------------------|
A |--3.----3.----3.----3.----3.----17-18-19------------|
E |----------------------------------------------------|

G |----------------------------|----------------------------|
D |----------------------------|----------------------------|
A |--1-----------1.-1----------|--1-----------1.-1----------|
E |----------------------------|----------------------------|

G |-----2-----4-----5-----9----|-----2-----4-----5-----9----|
D |----------------------------|----------------------------|
A |--0-----2-----3-----7-------|--0-----2-----3-----7-------|
E |----------------------------|----------------------------|

G |----------------------------|----------------------------|
D |----------------------------|----------------------------|
A |----------------------------|----------------------------|
E |--1--1--------1--1----------|--1--1--------1--1----------|

[CHORUS 1] (1:04)
G |----------------------------|
D |----------------------------|
A |--3--3--3--3--3--3--3--3----|
E |----------------------------|

G |----------------------------------------------------|
D |----------------------------------------------------|
A |--/15---15-17-15----------3-----3-----3-----2-------|
E |-----15-------------15------------------------------|

G |----------------------------|
D |----------------------------|
A |--1--1--1--1--1--1--1--1----|
E |----------------------------|

G |----------------------------------------------------|
D |----------------------------------------------------|
A |--1-----1-----/15---15-17-15----------1-----1-------|
E |-----------------15-------------15------------------|

G |----------------------------|----------------------------|
D |--------7--5----------------|----------------------------|
A |--------------5--3----------|----------------------------|
E |--5--5--------------5--3----|--1--1--1--1--1--1--1--1----|

G |----------------------------|
D |----------------------------|
A |--3--3--3--3--3--3--3--3----|
E |----------------------------|

G |----------------------------------------------------|
D |----------------------------------------------------|
A |--/15---15-17-15----------3-----3-----3-----2-------|
E |-----15-------------15------------------------------|

G |----------------------------|
D |----------------------------|
A |--1--1--1--1--1--1--1--1----|
E |----------------------------|

G |----------------------------------------------------|
D |----------------------------------------------------|
A |--1-----1-----/15---15-17-15----------1-----1-------|
E |-----------------15-------------15------------------|

G |----------------------------|-------|----------------------------|
D |--------7--5----------------|-------|----------------------------|
A |--------------5--3----------|-------|--3.-3.-------3.-3.---------|
E |--5--5--------------5--3----|--1----|----------------------------|

[VERSE 2] (1:39)
G |----------------------------|----------------------------|
D |----------------------------|-----------------------14\--|
A |--3-----------3--3----------|--3--------------1----------|
E |----------------------------|-----1-----3-----------12\--|

G |----------------------------|----------------------------|
D |--12------------------------|----------------------------|
A |----------------------------|----------------------------|
E |--10----------6--6----------|--6--3.----1.----3.----6----|

G |-----2-----4-----5-----9----|-----2-----4-----5-----9----|
D |----------------------------|----------------------------|
A |--0-----2-----3-----7-------|--0-----2-----3-----7-------|
E |----------------------------|----------------------------|

G |----------------------------|
D |----------------------------|
A |----------------------------|
E |--1--1--------1--1----------|

[CHORUS 2] (1:58)
G |----------------------------|
D |----------------------------|
A |--3--3--3--3--3--3--3--3----|
E |----------------------------|

G |----------------------------------------------------|
D |----------------------------------------------------|
A |--/15---15-17-15----------3-----3-----3-----2-------|
E |-----15-------------15------------------------------|

G |----------------------------|
D |----------------------------|
A |--1--1--1--1--1--1--1--1----|
E |----------------------------|

G |----------------------------------------------------|
D |----------------------------------------------------|
A |--1-----1-----/15---15-17-15----------1-----1-------|
E |-----------------15-------------15------------------|

G |----------------------------|----------------------------|
D |--------7--5----------------|----------------------------|
A |--------------5--3----------|----------------------------|
E |--5--5--------------5--3----|--1--1--1--1--1--1--1--1----|

G |----------------------------|
D |----------------------------|
A |--3--3--3--3--3--3--3--3----|
E |----------------------------|

G |----------------------------------------------------|
D |----------------------------------------------------|
A |--/15---15-17-15----------3-----3-----3-----2-------|
E |-----15-------------15------------------------------|

G |----------------------------|
D |----------------------------|
A |--1--1--1--1--1--1--1--1----|
E |----------------------------|

G |----------------------------------------------------|
D |----------------------------------------------------|
A |--1-----1-----/15---15-17-15----------1-----1-------|
E |-----------------15-------------15------------------|

G |----------------------------|-------|----|----|----|----|
D |--------7--5----------------|-------|----|----|----|----|
A |--------------5--3----------|-------|----|----|----|----|
E |--5--5--------------5--3----|--1----|----|----|----|----|

[BRIDGE] (2:30)
G |--9----|--9--------10---|--7----|--7----|--5----|-------|
D |-------|----------------|-------|-------|-------|-------|
A |-------|----------------|-------|-------|-------|--/8---|
E |--8----|--8--------10---|--6----|--6----|--5----|-------|

[GUITAR SOLO] (2:57)
G |----------------------------|
D |----------------------------|
A |--3--3--3--3--3--3--3--3----|
E |----------------------------|

G |----------------------------|----------------------------|
D |----------------------------|----------------------------|
A |--3--3--3--3--3--3--3--2----|--1--1--1--1--1--1--1--1----|
E |----------------------------|----------------------------|

G |----------------------------|----------------------------|
D |----------------------------|----------------------------|
A |--1--1--1--1--1--1--1--1----|----------------------------|
E |----------------------------|--5--5--5--5--5--5--5--5----|

G |----------------------------|
D |----------------------------|
A |----------------------------|
E |--1--1--1--1--1--1--1--1----|

[CHORUS 3] (3:15)
G |----------------------------|
D |----------------------------|
A |--3--3--3--3--3--3--3--3----|
E |----------------------------|

G |----------------------------------------------------|
D |----------------------------------------------------|
A |--/15---15-17-15----------3-----3-----3-----2-------|
E |-----15-------------15------------------------------|

G |----------------------------|
D |----------------------------|
A |--1--1--1--1--1--1--1--1----|
E |----------------------------|

G |----------------------------------------------------|
D |----------------------------------------------------|
A |--1-----1-----/15---15-17-15----------1-----1-------|
E |-----------------15-------------15------------------|

G |----------------------------|----------------------------|
D |--------7--5----------------|----------------------------|
A |--------------5--3----------|----------------------------|
E |--5--5--------------5--3----|--1--1--1--1--1--1--1--1----|

G |----------------------------|
D |----------------------------|
A |--3--3--3--3--3--3--3--3----|
E |----------------------------|

G |----------------------------------------------------|
D |----------------------------------------------------|
A |--/15---15-17-15----------3-----3-----3-----2-------|
E |-----15-------------15------------------------------|

G |----------------------------|
D |----------------------------|
A |--1--1--1--1--1--1--1--1----|
E |----------------------------|

G |----------------------------------------------------|
D |----------------------------------------------------|
A |--1-----1-----/15---15-17-15----------1-----1-------|
E |-----------------15-------------15------------------|

G |----------------------------|----------------------------|
D |--------7--5----------------|----------------------------|
A |--------------5--3----------|----------------------------|
E |--5--5--------------5--3----|--1--1--1--1--1--1--1--1----|

G |----------------------------|----------------------------|
D |----------------------------|----------------------------|
A |--3--3--3--3--3--3--3--3----|--3--3--3--3--3--3--3--2----|
E |----------------------------|----------------------------|

G |----------------------------|----------------------------|
D |----------------------------|----------------------------|
A |--1--1--1--1--1--1--1--1----|--1--1--1--1--1--1--1--1----|
E |----------------------------|----------------------------|

G |----------------------------|----------------------------|
D |----------------------------|----------------------------|
A |----------------------------|----------------------------|
E |--5--5--5--5--5--5--5--5----|--1--1--1--1--1--1--1--1----|

G |----------------------------|----------------------------|
D |----------------------------|----------------------------|
A |--3--3--3--3--3--3--3--3----|--3--3--3--3--3--3--3--2----|
E |----------------------------|----------------------------|

G |----------------------------|----------------------------|
D |----------------------------|----------------------------|
A |--1--1--1--1--1--1--1--1----|--1--1--1--1--1--1--1--1----|
E |----------------------------|----------------------------|

G |----------------------------|----------------------------|
D |----------------------------|----------------------------|
A |----------------------------|----------------------------|
E |--5--5--5--5--5--5--5--5----|--1--1--1--1--1--1--1--1----|

[OUTRO] (4:18)
G |-------|-------|----------|-------|-------|----||
D |-------|-------|----------|-------|-------|----||
A |--3----|--1----|----------|--3----|-------|----||
E |-------|-------|--1--4----|-------|-------|----||

================================
Legend
x - dead note
h - hammer on/pull off
/ - slide
. - staccato
================================
Suggest correction
Creating personal tab
Creating personal tab
You can edit any tab online and save it as your Personal.

You can edit, replace or remove any tab part or add personal notes – all changes will be seen only by you.

Personal tabs can be accessed anytime from any device, even offline.
Learn more »
Give kudos to tab author, rate the tab!
1 2 3 4 5
comments
print report bad tab
guest
You may want to rate the tab now too:
select rating
Wanna post a correction for this tab? Suggest correction