Oops, an error
Loading. Please wait.

Dj Dj tab

by Riddim
24 views 1 this week
no commentswrite comment
1 2 3 4 5
3 more votes to show rating
add to favorites
×
Save as Personal and add changes to this tab that will be seen only by you. Learn more ›
×
You can save this tab as Personal to edit and correct it or add notes. All changes will be seen only by you. Learn more »
launch autoscroll
font size
0
reset
how to read this tab
guitar tuner
edit
Autoscroll
slow
fast
+/-
esc
set tempo
stop
INTRO: SI-MI-SI-LA (4 veces por acorde)  x 2

TROMPETA:

riff de trompeta:  x 4

e||------------10h11--10h11----11----------------------------
B||----10---12--------------------12----12s14-------10---10--
G||-11-------------------------------------------------------
D||----------------------------------------------------------
A||----------------------------------------------------------
E||----------------------------------------------------------


e||-------------10h11----10h11---11------------11--------------|
B||-----10--12------------------------------12---12s14-----14----|
G||-11---------------------------------------------------------11-
D||------------------------------------------------------------
A||-------------------------------------------------------------
E||--------------------------------------------------------------


SI                        MI             SI              LA
DJ DJ! cambia el estilo ya...DJ DJ!
SI                        MI             SI              LA
DJ DJ! cambia el estilo ya...DJ DJ!


ESTROFA: igual que INTRO


SI          MI       SI           LA
Montón, de mugre en Babylon
No puedes escaparte de tanta polución
Montón de guerras sin razón
Destruyen poco a poco toda la creación

As I would seh

DJ DJ
Cambia el estilo ya, DJ DJ

Tanto equipos para diversión
Que escupen frases con mala intención
Tantas palabras sin motivación
Denle a los niños un futuro mejor

As I would seh

DJ DJ

            
            
Suggest correction
Creating personal tab
Creating personal tab
You can edit any tab online and save it as your Personal.

You can edit, replace or remove any tab part or add personal notes – all changes will be seen only by you.

Personal tabs can be accessed anytime from any device, even offline.
Learn more »
Give kudos to tab author, rate the tab!
1 2 3 4 5
comments
print report bad tab
guest
Wanna post a correction for this tab? Suggest correction