Oops, an error
Loading. Please wait.

Las Rocas tab

by Riddim
31 views 1 this week
no commentswrite comment
1 2 3 4 5
3 more votes to show rating
add to favorites
×
Save as Personal and add changes to this tab that will be seen only by you. Learn more ›
×
You can save this tab as Personal to edit and correct it or add notes. All changes will be seen only by you. Learn more »
launch autoscroll
font size
0
reset
how to read this tab
guitar tuner
edit
Autoscroll
slow
fast
+/-
esc
set tempo
stop
INTRO: hace este jueguito antes del tema...


e|--------------------------------------------
B|------7h8-7h8-7h8-7h8-7h8-7h8----v5--
G|--------------------------------------------
D|--------------------------------------------
A|--------------------------------------------
E|--------------------------------------------

e|--------------------------------------------
B|------7h8-7h8-7h8-7h8-7h8-7h8----v10-
G|--------------------------------------------
D|--------------------------------------------
A|--------------------------------------------
E|--------------------------------------------

e|--------------------------------------------
B|------------------5-7h8h7-----------------
G|-------------5-7----------------------------
D|--------5-7---------------------------------
A|-----7--------------------------------------
E|--------------------------------------------

e|---------------------------------13(vibrato)-
B|------------------5-7h8s12-----------------
G|-------------5-7----------------------------
D|--------5-7---------------------------------
A|-----7--------------------------------------
E|--------------------------------------------


y durante todo el tema hace: MIm-RE (2 veces por acorde)


MIm                          RE
Sube a la roca de la unidad
Y busca quien te quiera acompañar
Y mira el mundo que abajo está
Perdido con tanta modernidad

Sube a la roca de la verdad
Si estas despierto la encontrarás
Y mira el mundo que abajo está
Cada vez mas difícil de habitar

Sube a la roca de la realidad
No creas que es tan fácil escapar
De este sistema que oprime más.
Noche a noche declara sabiduría.

Sube a la roca de la igualdad
Que no te quiten la identidad
La paz del cielo ya llegará
Pero en la tierra también queremos paz

Vive y elige bien
La roca en donde estar de pie
Vive y elige bien
La roca en donde estar de pie

Sube a la roca de la unidad
Y busca quien te quiera acompañar
Sube a la roca de la verdad
Si estas despierto la encontrarás
Sube a la roca de la realidad
No creas que es tan fácil escapar
Sube a la roca de la igualdad
Que no te quiten la identidad

Vive y elige bien
La roca en donde estar de pie
Vive y elige bien
La roca en donde estar de pie
Suggest correction
Creating personal tab
Creating personal tab
You can edit any tab online and save it as your Personal.

You can edit, replace or remove any tab part or add personal notes – all changes will be seen only by you.

Personal tabs can be accessed anytime from any device, even offline.
Learn more »
Give kudos to tab author, rate the tab!
1 2 3 4 5
comments
print report bad tab
guest
Wanna post a correction for this tab? Suggest correction