Oops, an error
Loading. Please wait.

Verdadero Amor tab

version 1
version 1

Whole song

by Riddim
11 views 1 this week
no commentswrite comment
1 2 3 4 5
3 more votes to show rating
add to favorites
×
Save as Personal and add changes to this tab that will be seen only by you. Learn more ›
×
You can save this tab as Personal to edit and correct it or add notes. All changes will be seen only by you. Learn more »
launch autoscroll
font size
0
reset
how to read this tab
guitar tuner
edit
Autoscroll
slow
fast
+/-
esc
set tempo
stop
intro


1/------------------------I--------------------------------------------
2/------------------------I--------------------------------------------
3/--7-10-9-7--7-10-9--12*-I-12*-12*-10-12*-12-10-12*-12--10-12*-12-10--
4/--------9---------9-----I------------------------------------------12
5/------------------------I--------------------------------------------
6/------------------------I--------------------------------------------


1/-------------------------------------------13--------------------
2/----------------------------------------------13*--11-13*-11-10--
3/------10------12*-12-10----12*-12-10-12-10-----------------------
4/-10-12--12-10-----------12---------------------------------------
5/-----------------------------------------------------------------
6/-----------------------------------------------------------------

1/-----------------------------------------------------
2/--10-11-13-11-10-------------------------------------
3/-----------------12-10---12*-10-12-10----------------
4/-----------------------9-----------------------------
5/-----------------------------------------------------
6/-----------------------------------------------------


* bend...hay q escuchar bien la cancion para sacar los tiempos


son 4 rasgeos por acorde


   C              Dm
Si puedo cantar, te quiero dar
   B            A7
algo de mi inspiracion
  C              Dm
Gracias te doy, por lo que soy
B              A7 (sigue asi todo el tema)
   por dar

Sigo teniendo esperanza, voy a creer
que hoy puedo contar con vos
Se que esta vez, vas a entender
Y dar....

El mundo va sin direccion
y no me siento solo hoy
Yo se que estas, yo se que vas
a dar.....

Amor, Verdadero amor te quiero dar
Amor, Verdadero amor te quiero dar

Si puedo cantar, te quiero dar
algo de mi inspiracion
Gracias te doy, por lo que soy.
por dar
El mundo va sin direccion
y no me siento solo hoy
yo se que estas, yo se que vas
a dar.....

Amor, Verdadero amor te quiero dar
Amor, Verdadero amor te quiero dar

flor de tema
espero q les guste
por dudas o consultas
 o chorta_60@

            
            
Suggest correction
Creating personal tab
Creating personal tab
You can edit any tab online and save it as your Personal.

You can edit, replace or remove any tab part or add personal notes – all changes will be seen only by you.

Personal tabs can be accessed anytime from any device, even offline.
Learn more »
Give kudos to tab author, rate the tab!
1 2 3 4 5
comments
print report bad tab
guest
Wanna post a correction for this tab? Suggest correction