Oops, an error
Loading. Please wait.

I Feel Fine Bass Tab

version 2
version 2

Whole song

Interactive

366 views 1 this week
no commentswrite comment
1 2 3 4 5
please rate
add to favorites
launch autoscroll
font size
0
reset
guitar tuner
Autoscroll
slow
fast
+/-
esc
set tempo
stop
Help us to improve Ultimate-Guitar.com Take our survey!
×
-------------------------------------------------------------------------------
			           I Feel fine - Riddlin kids
-------------------------------------------------------------------------------

Tabbed By : Zero is great man.
Tuning:Standard(Right):EADG
Artist: Riddlin Kids
Song: I Feel Fine
Albulm: Hurry up and wait
Song written by: Clint Baker.

Intro/Fill
G|------------------------------------------------------------|
D|------------------------------------------------------------|
A|-4-4-4-4-4-4-4-4-4-4-4-4-4-4-4-4-4-4-4-4-4------3-4-----3-4-|(x2)
E|--------------------------------------------2-2-----4-4-----|

Verse 1: "Right now, I really dont care....."
G|----------------------------------------------------|
D|----------------------------------------------------|(x2)
A|-4-4-4-4-4-4----------------------------------------|
E|--------------4-4-4-4-4-4--2-2-2-2-2-2--4-4-4-4-4-4-|

Pre-Chorus: "One, Two, Three, Four..."
G|------------|
D|------------|
A|------------|
E|-2-2-2-2--4-|

Chorus: "And I feel fine..."
G|----------------------------------------------------------------------|
D|----------------------------------------------------------------------|
A|-4-4--6-6------------4-4--6-6------------4-4--6-6------------4-4--6-6-|
E|-----------2-2--4-4------------2-2--4-4------------2-2--4-4-----------|

Chorus fill 1: Fiiiiiiinee.........
G|---------------------|
D|---------------------|
A|-4-4-4-4-4-4-4-4-4-4-|
E|---------------------|

Intro/Fill
G|------------------------------------------------------------|
D|------------------------------------------------------------|
A|-4-4-4-4-4-4-4-4-4-4-4-4-4-4-4-4-4-4-4-4-4------3-4-----3-4-|(x2)
E|--------------------------------------------2-2-----4-4-----|

Verse 2: "Right now, I don't know what to say....."
G|----------------------------------------------------|
D|----------------------------------------------------|(x2)
A|-4-4-4-4-4-4----------------------------------------|
E|--------------4-4-4-4-4-4--2-2-2-2-2-2--4-4-4-4-4-4-|

Pre-Chorus: "One, Two, Three, Four..."
G|------------|
D|------------|
A|------------|
E|-2-2-2-2--4-|

Chorus: "And I feel fine..."
G|----------------------------------------------------------------------|
D|----------------------------------------------------------------------|
A|-4-4--6-6------------4-4--6-6------------4-4--6-6------------4-4--6-6-|
E|-----------2-2--4-4------------2-2--4-4------------2-2--4-4-----------|

Chorus Fill 2: "fiiiNNNEEEE.."
G|--------------------------------|
D|--------------------------------|
A|-4-4-4-4-4-4-4--6-6-6-6-6-6-6-6-|
E|--------------------------------|

Bridge: "I don't know what's the matter with me...."
G|--------------------------------------------------------------------|
D|--------------------------------------------------------------------|
A|--------------------------------------------------------------------|
E|-6-6-6-6-6-6-6-6--4-4-4-4-4-4-4-4--2-2-2-2-2-2-2-2--4-4-4-4-4-4-4-4-|

Bridge Fill: "The right girl still out there..."
G|--------------------------------|
D|--------------------------------|
A|-4-4--4--4-4--4--4-4--4--4-4--4-|
E|--------------------------------|

Chorus: "And I feel fine..."(after guitar plays chorus one time)
G|----------------------------------------------------------------------|
D|----------------------------------------------------------------------|
A|-4-4--6-6------------4-4--6-6------------4-4--6-6------------4-4--6-6-|
E|-----------2-2--4-4------------2-2--4-4------------2-2--4-4-----------|

Chorus fill 1: Fiiiiiiinee.........
G|---------------------|
D|---------------------|
A|-4-4-4-4-4-4-4-4-4-4-|
E|---------------------|

Intro/Fill
G|------------------------------------------------------------|
D|------------------------------------------------------------|
A|-4-4-4-4-4-4-4-4-4-4-4-4-4-4-4-4-4-4-4-4-4------3-4-----3-4-|(x2)
E|--------------------------------------------2-2-----4-4-----|

Outro
G|-----|
D|-----|
A|-4-4-|
E|-----|

Lyrics

[Intro/fill]

[v1]
Right now, I Really don't care, 
if I'm alone, or if I got you sittin' here.
Oh no, it's happening again, 
man I should think about before I say anything.

[P.C]
One, two, three, four, looks like I'm alone again.

[C]
And I feel fine, 
doesn't really matter now cause I'm all right,
She knocked me on my a$$ again but I don't mind, 
looks like I'm alone again.
And I feel fiiiineee.
[CF1]

[Intro/fill]

[v2]
Right now, I don't know what to say, 
Because your mean and I never liked you anyway.
Don't ever call cause I don't want to be friends.
excuse me now cause the chorus is coming up again.

[P.C]
One, two, three, four, looks like I'm alone again.

[C]
And I feel fine, 
doesn't really matter now cause I'm all right,
She knocked me on my a$$ again but I don't mind, 
looks like I'm alone again.
And I feel fiiiiNNNEEEE.
[CF2]

[Bridge]
They come and go I don't feel a thing.
It's not cause I'm a Jerk and I don't care.
I don't know what the matter with me.
I only know the right girl still out there.
[Bridge fill] Right girl still out there.

[Chorus]
And I feel fine, 
doesn't really matter now cause I'm all right,
She knocked me on my a$$ again but I don't mind, 
looks like I'm alone again.
And I feel fine.
And I feel fine, 
doesn't really matter now cause I'm all right,
She knocked me on my a$$ again but I don't mind, 
looks like I'm alone again.
And I feel fiiiiNNNEEEE.

[Intro/fill]

[Outro]
===============================================================================
Suggest correction
Give kudos to tab author, rate the tab!
1 2 3 4 5
comments
print report bad tab
guest
You may want to rate the tab now too:
select rating
Wanna post a correction for this tab? Suggest correction