Oops, an error
Loading. Please wait.

I Feel Fine Tab

version 2
version 2

Interactive

2,404 views 1 this week
7 commentsread comments
1 2 3 4 5
excellent!
x 11
add to favorites
launch autoscroll
font size
0
reset
how to read this tab
guitar tuner
Tab Pro tools
  • play this tab
  • loop segment
  • change instrument
  • show fretboard
  • metronome
×
Best way to learn
"I Feel Fine"
Autoscroll
slow
fast
+/-
esc
set tempo
stop
My first tab, and I'm 99.9% sure this is right, any corrections would be great.  
Its in standard tuning, and is an easy and fun song to play.  Enjoy!

Intro
               3x                     
E------------------|--------------------|
B---------6--------|--------2---------4-|
G-6-6-------6---6--|--------------------|
D-6-6---6-----6----|-4-4--4----6-6--6---|
A-4-4--------------|-4-4-------6-6------|
E------------------|-2-2-------4-4------|  Then repeat this section

Verse
(Palm Muted)

E-----------------|-----------------|-----------------|---------------
B-----------------|-----------------|-----------------|---------------
G-6-6-6-6-6-6-6-6-|-6-6-6-6-6-6-6-6-|-----------------|---------------
D-6-6-6-6-6-6-6-6-|-6-6-6-6-6-6-6-6-|-4-4-4-4-4-4-4-4-|6-6-6-6-6-6-6-6
A-4-4-4-4-4-4-4-4-|-4-4-4-4-4-4-4-4-|-4-4-4-4-4-4-4-4-|6-6-6-6-6-6-6-6
E-----------------|-----------------|-2-2-2-2-2-2-2-2-|4-4-4-4-4-4-4-4

Pre Chorus

E---------------|----------------|
B---------------|----------------|
G---------------|----------------|
D-4---4---4---4-|-6--------------|
A-4---4---4---4-|-6--------------|
E-2---2---2---2-|-4--------------|

"One, Two, Three, Four..."

Chorus
 Play these first 2 measures  3x and then:
E-------------|--------------| |--------------|-----------------|
B-------------|--------------| |--------------|-----------------|
G-6---------8-|--------------| |-6----------8-|-----------------|
D-6---------8-|-4----------6-| |-6----------8-|-4-4-4-4-4-4-4-4-|
A-4---------6-|-4----------6-| |-4----------6-|-4-4-4-4-4-4-4-4-|
E-------------|-2----------4-| |--------------|-2-2-2-2-2-2-2-2-|

"I feel fine..."

Go back and repeat everything.  On your repeat after chorus:
                                     Repeat the last 2 measures 
E-----------------|-----------------|----------------|---------------|
B-----------------|-----------------|----------------|---------------|
G-----------------|-----------------|----------------|---------------|
D-6-6-6-6-6-6-6-6-|-6-6-6-6-6-6-6-6-|-4-4-4-4-4-4-4-4|6-6-6-6-6-6-6-6|
A-6-6-6-6-6-6-6-6-|-6-6-6-6-6-6-6-6-|-4-4-4-4-4-4-4-4|6-6-6-6-6-6-6-6|
E-4-4-4-4-4-4-4-4-|-4-4-4-4-4-4-4-4-|-2-2-2-2-2-2-2-2|4-4-4-4-4-4-4-4|

Then you go back, do the chorus and intro.  

Listen to the CD so you can get it down, all the repeats, and which sections 
follow what, and so forth.  I hope its not too confusing.  But trust your ear.
comments
print report bad tab
7 comments total. Showing first comments.
+1 reply
ntmagic1 wrote on August 2 2002, 12:00 am

In the intro it goes
E------------------|--------------------
B---------6--------|--------2---------4-
G-6-6---------6----|--------------------
D-6-6---6---6---6--|-4-4--4----6-6--6---
A-4-4--------------|-4-4-------6-6------
E------------------|-2-2-------4-4------

And in the verse its

E--------------------------------------
B--------------------------------------
G-6------------------------------------
D-6--8 times----6----------4-----6-----
A-4-------------6--8 times-4-*8--6-*8--
E---------------4----------2-----4-----


but besides that it looks good

0 reply
ntmagic1 wrote on August 2 2002, 12:00 am

In the intro it goes
E------------------|--------------------
B---------6--------|--------2---------4-
G-6-6---------6----|--------------------
D-6-6---6---6---6--|-4-4--4----6-6--6---
A-4-4--------------|-4-4-------6-6------
E------------------|-2-2-------4-4------

And in the verse its

E--------------------------------------
B--------------------------------------
G-6------------------------------------
D-6--8 times----6----------4-----6-----
A-4-------------6--8 times-4-*8--6-*8--
E---------------4----------2-----4-----


but besides that it looks good

0 reply
SasquatchR wrote on October 18 2002, 12:00 am

Intro
3x
E------------------|-2-2-------4-4------|
B---------6--------|-2-2-------4-4------|
G-6-6---------6----|-3-3-------5-5------|
D-6-6---6---6---6--|-4-4-------6-6------|
A-4-4--------------|-4-4--3-4--6-6--3-4-|
E------------------|-2-2-------4-4------| Then repeat this section

I want to post or [tab]
guest
You may want to rate the tab now too:
select rating
Please do not post tabs as comments. Select "correction" instead!