Oops, an error
Loading. Please wait.

I Feel Fine Tab

version 6
version 6

Interactive

642 views 1 this week
no commentswrite comment
1 2 3 4 5
please rate
add to favorites
launch autoscroll
font size
0
reset
how to read this tab
guitar tuner
Tab Pro tools
  • play this tab
  • loop segment
  • change instrument
  • show fretboard
  • metronome
×
Best way to learn
"I Feel Fine"
Autoscroll
slow
fast
+/-
esc
set tempo
stop
Contributor
this is riddlin kids kick ass song!I feel fine
its pretty easy to figure outi did it in a couple minutes



E-----------------------------------|-----------------|2X
B-----6----------6--------6---------|-----------------|
G-66----6----66----6--66----6-------|-----------------|
D-66-6-6-6---66-6-6-6-66-6-6-6------|44-----66--------|
A-44---------44-------44------------|44-3/4-66-3/4----|
E-----------------------------------|22-----44--------|
                                     ..     ..                               
E-----------------------------------|-----------------|----------------|2X
B-----------------------------------|-----------------|----------------|
G-6-6-6-6-6-6-6-6---6-6-6-6-6-6-----|-----------------|----------------|
D-6-6-6-6-6-6-6-6---6-6-6-6-6-6-----|-4-4-4-4-4-4-4-4-|-6-6-6-6-6-6-6-6|
A-4-4-4-4-4-4-4-4---4-4-4-4-4-4-3/4-|-4-4-4-4-4-4-4-4-|-6-6-6-6-6-6-6-6|
E-----------------------------------|-2-2-2-2-2-2-2-2-|-4-4-4-4-4-4-4-4|
  . . . . . . . .   . . . . . .       . . . . . . . .   . . . . . . . .      
                            

E------------------|
B------------------| 
G------------------|
D-4-4-4-4--6-------|
A-4-4-4-4--6-------|
E-2-2-2-2--4-------|

3X
E------------------|----------------|
B------------------|----------------|
G-66-88------------|----------------|
D-66-88-44-66------|-4-4-4-4-4-4-4-4|
A-44-66-44-66------|-4-4-4-4-4-4-4-4|
E-------22-44------|-2-2-2-2-2-2-2-2|

E-----------------------------------|-----------------|2X
B-----6----------6--------6---------|-----------------|
G-66----6----66----6--66----6-------|-----------------|
D-66-6-6-6---66-6-6-6-66-6-6-6------|44-----66--------|
A-44---------44-------44------------|44-3/4-66-3/4----|
E-----------------------------------|22-----44--------|

E-----------------------------------|-----------------|----------------|2X
B-----------------------------------|-----------------|----------------|
G-6-6-6-6-6-6-6-6---6-6-6-6-6-6-----|-----------------|----------------|
D-6-6-6-6-6-6-6-6---6-6-6-6-6-6-----|-4-4-4-4-4-4-4-4-|-6-6-6-6-6-6-6-6|
A-4-4-4-4-4-4-4-4---4-4-4-4-4-4-3/4-|-4-4-4-4-4-4-4-4-|-6-6-6-6-6-6-6-6|
E-----------------------------------|-2-2-2-2-2-2-2-2-|-4-4-4-4-4-4-4-4|
  . . . . . . . .   . . . . . .       . . . . . . . .   . . . . . . . .   

3X
E------------------|----------------|
B------------------|----------------|
G-66-88------------|----------------|
D-66-88-44-66------|-4-4-4-4-6-6-6-6|
A-44-66-44-66------|-4-4-4-4-6-6-6-6|
E-------22-44------|-2-2-2-2-4-4-4-4|  

E-----------------|-----------------|----------------|---------------|2X
B-----------------|-----------------|----------------|---------------|
G-----------------|-----------------|----------------|---------------|
D-8-8-8-8-8-8-8-8-|-6-6-6-6-6-6-6-6-|-4-4-4-4-4-4-4-4|6-6-6-6-6-6-6-6|
A-8-8-8-8-8-8-8-8-|-6-6-6-6-6-6-6-6-|-4-4-4-4-4-4-4-4|6-6-6-6-6-6-6-6|
E-6-6-6-6-6-6-6-6-|-4-4-4-4-4-4-4-4-|-2-2-2-2-2-2-2-2|4-4-4-4-4-4-4-4|

5X
E------------------|----------------|
B------------------|----------------|
G-66-88------------|----------------|
D-66-88-44-66------|-4-4-4-4--------|
A-44-66-44-66------|-4-4-4-4--------|
E-------22-44------|-2-2-2-2--------|  

3X
E------------------|----------------|
B------------------|----------------|
G-66-88------------|----------------|
D-66-88-44-66------|-4-4-4-4-4-4-4-4|
A-44-66-44-66------|-4-4-4-4-4-4-4-4|
E-------22-44------|-2-2-2-2-2-2-2-2|

E-----------------------------------|-----------------|2X
B-----6----------6--------6---------|-----------------|
G-66----6----66----6--66----6-------|-----------------|
D-66-6-6-6---66-6-6-6-66-6-6-6------|44-----66--------|
A-44---------44-------44------------|44-3/4-66-3/4----|
E-----------------------------------|22-----44--------|
                                     ..     .. 
  

Right now I really don't care if I'm alone or if I got you sittin' here. 
Oh, no look I've done it again. 
Man I should think about it before I say anything. 
1,2,3,4, Looks like I'm alone again and... 

I feel fine. 
Doesn't really matter now cause I'm all right. 
She knocked me on my ass again, but I don't mind. 
Looks like I'm alone again and I feel fine. 

Right now I don't know what to say, because you're mean and I never liked you anyway. 
Don't ever call cause I don't want to be friends. 
Excuse me now because the chorus is comin' up again. 
1,2,3,4, Looks like I'm alone again and... 

I feel fine. 
Doesn't really matter now cause I'm all right. 
She knocked me on my ass again, but I don't mind. 
Looks like I'm alone again and I feel fine. 

They come and go and I don't feel a thing. 
It's not causeI'm a jerk and I don't care. 
And I don't know what's the matter with me. 
I only know the right girl still out there. 

I feel fine. 
Doesn't really matter now cause I'm all right. 
She knocked me on my ass again, but I don't mind. 
Looks like I'm alone again and I feel fine. 
I feel fine. 
Doesn't really matter now cause I'm all right. 
She knocked me on my ass again, but I don't mind. 
Looks like I'm alone again and I feel fine.
comments
We did not receive enough feedback on this tab! Please rate:
print report bad tab
1 2 3 4 5
I want to post or [tab]
guest
You may want to rate the tab now too:
select rating
Please do not post tabs as comments. Select "correction" instead!