Oops, an error
Loading. Please wait.

I Hate You Tab

147 views 1 this week
no commentswrite comment
1 2 3 4 5
2 more votes to show rating
add to favorites
launch autoscroll
font size
0
reset
how to read this tab
guitar tuner
Autoscroll
slow
fast
+/-
esc
set tempo
stop
Help us to improve Ultimate-Guitar.com Take our survey!
×
Author
Difficulty
intermediate
THIS IS NOT MY TAB! THIS TAB BELONGS TO theotheroreo! I AM ACKNOLEDGING THIS. I NOTICED 
WASNT HERE SO I DECIDED TO PUT IT HERE


Band: Riddlin' Kids
Song: I Hate YOu
album: Stop the world

this is another cool song off of their new album. i can't believe no ones tabbed anymore
of their songs! lazy people! this song is in standard tuning

Intro

 G.I
|-----------------|
|-----------------|
|------------5-5--|
|--5-5--7-7--5-5--|x2
|--5-5--7-7--3-3--|
|--3-3--5-5-------|

G.II
|--------------------------------------------------------|
|--------------------------------------------------------|
|--12-12-11-12---12-12-14-12----12-12-12-12-9--9-11-11---|
|--x--x--x--x----x--x--x--x-----x--x--x--x--x--x-x--x----|x2
|--10-10-9-10----10-10-12-10----10-10-10-10-11-7-9--9----|
|--------------------------------------------------------|

Verse

G.I
|------------------------------------------------------|
|------------------------------------------------------|
|----------------------------55-55-55-55---------------|
|--55-55-55-55--77-77-77-77--55-55-55-55--55-55-55-55--|x2
|--55-55-55-55--77-77-77-77--33-33-33-33--55-55-55-55--|
|--33-33-33-33--55-55-55-55---------------33-33-33-33--|
p.m.. .. .. ..  .. .. .. ..  .. .. .. ..  .. .. .. ..

|------------------|
|------------------|
|----------99--77--|on the second time  don't play the final
|--55--77--99--77--|G chord play this instead
|--55--77--77--55--|
|--33--55----------|


G.II
|----------|
|----------|
|--12--12--|
|--x---x---|play this alot
|--10--10--|
|----------|


Chorus

G.I
|--------------------------------------------------------------------------|
|--------------------------------------------------------------------------|
|--------------------5555555555555555--------------------5555555555555555--|
|--5555555555555555--5555555555555555--7777777777777777--5555555555555555--|x2
|--5555555555555555--3333333333333333--7777777777777777--3333333333333333--|
|--3333333333333333--------------------5555555555555555--------------------|

G.II
|--------------------------------------------------7--------------|
|--8-8-8-10-8---8-8-8-10-8---8-8-8-10-8---8-8-8-10---8-8-8-10-8---|
|-------------9------------9------------9-----------------------9-|
|-----------------------------------------------------------------|
|-----------------------------------------------------------------|
|-----------------------------------------------------------------|

G.II (cont.)
|-----------------------------------------|
|--8-8-8-10-8---8-8-8-10-8---8-8-12-8-10--|
|-------------9------------9--------------|
|-----------------------------------------|x2
|-----------------------------------------|
|-----------------------------------------|


Bridge

G.I and G.II
|------------------------------------------|
|------------------------------------------|
|--------------------------------55555555--|
|--55555555--77777777--22222222--55555555--|x3
|--55555555--77777777--22222222--33333333--|
|--33333333--55555555--00000000------------|

|------------------------------|
|------------------------------|
|-----------------------55x55--|
|--55x55--77x77--22x22--55x55--|x2
|--55x55--77x77--22x22--33x33--|
|--33x33--55x55--00x00---------|

thats it. pretty easy to play. i'm not 100% sure on the chorus for G.II, but what i have is
close enough.  e-mail me with corrections- theotheroreo@yahoo.com

order: Intro
       verse
       chorus
       intro
       verse
       chorus
       bridge
       verse
       chorus
Suggest correction
Give kudos to tab author, rate the tab!
1 2 3 4 5
comments
print report bad tab
guest
You may want to rate the tab now too:
select rating
Wanna post a correction for this tab? Suggest correction