Oops, an error
Loading. Please wait.

Just Another Day Tab

218 views 1 this week
no commentswrite comment
1 2 3 4 5
please rate
add to favorites
launch autoscroll
font size
0
reset
how to read this tab
guitar tuner
Autoscroll
slow
fast
+/-
esc
set tempo
stop
Help us to improve Ultimate-Guitar.com Take our survey!
×
Author
-------------------------------------------------------------------------------
                             just another day - riddlin kids
-------------------------------------------------------------------------------
Tabbed by: TheTroy
Tuning: Stabndardf

intro
e|---------------------------------------------------------------------------|
B|---------------------4-4-4-------------------------------------------------|
G|-1-1--1-1--1-1--1-1--4-4-4-------------------------------------------------| 
D|-2-2--2-2--2-2--2-2--4-4-4-------------------------------------------------|
A|-2-2--2-2--2-2--2-2--2-2-2-------------------------------------------------|
E|-0-0--0-0--0-0--0-0--------------------------------------------------------|

verse (palm mute)
e|---------------------------------------------------------------------------|
B|----------------------------------------------------------------|--|-------|
G|----------------------------------------------------------------|--|-------|
D|-9-9-9-9-9-9-9-9-9-9-9-9-9-9-9-9--------------------------------|X2|-------|
A|-7-7-7-7-7-7-7-7-7-7-7-7-7-7-7-7-7-7-7-7-7-7-7-7-7-7-7-7-7-7-7-7|--|-------|
E|---------------------------------5-5-5-5-5-5-5-5-5-5-5-5-5-5-5-5|--|-------|
 no palm mute
e|---------------------------------------------------------------------------|
B|---------------------------------------------------------------------------|
G|---------------------------------------------------------------------------|
D|---------------------------------------------------------------------------|
A|-11-11-11-11-11-11-11-11-9-9-9-9-9-9-9-9-7-7-7-7-7-7-7-7-7-7-7-7-7-7-7-7---|
E|-9--9--9--9--9--9--9--9--7-7-7-7-7-7-7-7-5-5-5-5-5-5-5-5-5-5-5-5-5-5-5-5---|

chorus guitar 1
e|---------------------------------------------------------------------------|
B|-----------4-x-x-4--2-x-x-2-4-4-4-4-4-4-4-4-2------------------------------|
G|-----------4-x-x-4--2-x-x-2-4-4-4-4-4-4-4-4-2------------------------------|
D|-2-----2---4-x-x-4--2-x-x-2-4-4-4-4-4-4-4-4-2-2----------------------------|
A|-2-----2---2-x-x-2--0-x-x-0-2-2-2-2-2-2-2-2-0-2----------------------------|
E|-0-x-x-0-x------------------------------------0----------------------------|

chorus guitar 2
e|---------------------------------------------------------------------------|
B|-9------------------10--------12-------------------------------------------|
G|---9-9999-11-9-9999----9-9999----9-9999------------------------------------|
D|---------------------------------------------------------------------------|
A|---------------------------------------------------------------------------|
E|---------------------------------------------------------------------------|

repeat intro

repeat verse (the second guitar messes with its chorus in the second half
but play with the open e note.)

repeat chorus

repeat intro

palm mute second half of verse

guitar 2 plays this here
e|---------------------------------------------------------------------------|
B|-5-5-5-5-5-5-5-5-4-5-5-5-5-5-5-5-2-2-2-2-2-2-2-2-0-0-0-0-0-0-0-0-----------|
G|---------------------------------------------------------------------------|
D|---------------------------------------------------------------------------|
A|---------------------------------------------------------------------------|
E|---------------------------------------------------------------------------|

play chorus (guitar 2 plays an open e note throughout)

play intro

END! there. i have tabbed every song on this album. hope they all are
accepted

| /  slide up
| \  slide down
| h  hammer-on
| p  pull-off
| ~  vibrato
| +  harmonic
| x  Mute note
===============================================================================
Suggest correction
Give kudos to tab author, rate the tab!
1 2 3 4 5
comments
print report bad tab
guest
You may want to rate the tab now too:
select rating
Please do not post tabs as comments. Select "correction" instead!