Oops, an error
Loading. Please wait.

Pick Up The Pieces tab

172 views 1 this week
1 commentread comment
1 2 3 4 5
x 4
add to favorites
×
Save as Personal and add changes to this tab that will be seen only by you. Learn more ›
×
You can save this tab as Personal to edit and correct it or add notes. All changes will be seen only by you. Learn more »
launch autoscroll
font size
0
reset
how to read this tab
guitar tuner
edit
Autoscroll
slow
fast
+/-
esc
set tempo
stop
Author
Difficulty
Intro: e|-----------------------------------|     e|-----------------------------------------|
       B|-----------------------------------|     B|-----------------------------------------|
       G|-----------------------------------| X2  G|-----------------------------------------| X2
       D|--222-----666-----777-----99999999-|     D|--22222222--66666666--44444444--77777777-|
       A|--222--7--666--7--777--7--99999999-|     A|--22222222--66666666--44444444--77777777-|
       E|--000-----444-----555-----77777777-|     E|--00000000--44444444--22222222--55555555-|

Verse: e|-----------------------------------------|
       B|-----------------------------------------|
       G|-----------------------------------------| X2
       D|--22222222--66666666--44444444--77777777-|
       A|--22222222--66666666--44444444--77777777-|
       E|--00000000--44444444--22222222--55555555-|

           Used to be a time ev'rything I did was right, and nothin' could go wrong (Nothin' could go wrong)

       e|----------------------------------|
       B|----------------------------------|
       G|----------------------------------| X2
       D|--2-2-2-2-6-6-6-6-4-4-4-4-7-7-7-7-|
       A|--2-2-2-2-6-6-6-6-4-4-4-4-7-7-7-7-|
       E|--0-0-0-0-4-4-4-4-2-2-2-2-5-5-5-5-|

           I don't wanna talk 'bout it, I don't wanna think about it. 

           Seems like all the walls are falling down around my feet and...

Chorus: e|-----------------------------------|
        B|-----------------------------------|
        G|-----------------------------------| X$
        D|--222-----666-----777-----99999999-|
        A|--222--7--666--7--777--7--99999999-|
        E|--000-----444-----555-----77777777-|

                            Here I am just picking up the pieces.

                            All alone just picking up the pieces.

                            Here I am just picking up the pieces.

                            I don't want to, I don't want to.

Verse: e|-----------------------------------------|
       B|-----------------------------------------|
       G|-----------------------------------------| X2
       D|--22222222--66666666--44444444--77777777-|
       A|--22222222--66666666--44444444--77777777-|
       E|--00000000--44444444--22222222--55555555-|

           Everything you've got doesn't really mean a lot when everything goes wrong,
                                                           and everything goes wrong

       e|----------------------------------|
       B|----------------------------------|
       G|----------------------------------| X2
       D|--2-2-2-2-6-6-6-6-4-4-4-4-7-7-7-7-|
       A|--2-2-2-2-6-6-6-6-4-4-4-4-7-7-7-7-|
       E|--0-0-0-0-4-4-4-4-2-2-2-2-5-5-5-5-|

           I don't want to think about it, I don't want to think about it.

           Seems like all the walls are falling down around my feet and...

Chorus: e|-----------------------------------|
        B|-----------------------------------|
        G|-----------------------------------| X2
        D|--222-----666-----777-----99999999-|
        A|--222--7--666--7--777--7--99999999-|
        E|--000-----444-----555-----77777777-|

                            Here I am just picking up the pieces.

                            All alone just picking up the pieces.

                            Here I am just picking up the pieces.

                            I don't want to, I don't want to.

Solo: e|---------------------------|    
      B|---------------------------|
      G|--9-8-6-22-2-2-------------| X4
      D|--9-8-6-22-2-2-4-44444-6-7-|
      A|--7-6-4-00-0-0-4-44444-6-7-|
      E|---------------2-22222-4-5-|

Bridge: e|--------------------------------------|
        B|--------------------------------------|
        G|--------------------------------------|
        D|--2---------------2------------2----2-|
        A|--2---------------2------------2----2-|
        E|--0-0000000000000-0-0000000000-0-00-0-|

Bridge Lead Solo: e|--5-4-0-4-5-4-0-4-0-| X32
                  B|--------------------|
                  G|--------------------|
                  D|--------------------|
                  A|--------------------|
                  E|--------------------|

Bridge for Rhythm: e|----------------------------------|
                   B|----------------------------------| X4
                   G|----------------------------------|
                   D|--2-2-2-2-6-6-6-6-4-4-4-4-7-7-7-7-|
                   A|--2-2-2-2-6-6-6-6-4-4-4-4-7-7-7-7-|
                   E|--0-0-0-0-4-4-4-4-2-2-2-2-5-5-5-5-|

                      Here I am just picking up the... here I am just picking up the...

                      Where did I go wrong? Where did I go wrong?

Outro: e|-----------------------------------|     End Chord: e|----|
       B|-----------------------------------|                B|----|
       G|-----------------------------------| X4             G|----|
       D|--222-----666-----777-----99999999-|                D|--2-|
       A|--222--7--666--7--777--7--99999999-|                A|--2-|
       E|--000-----444-----555-----77777777-|                E|--0-|

                           Here I am just picking up the pieces.

                           All alone just picking up the pieces.

                           Here I am just picking up the pieces.

                           I don't want to, I don't want to.

Simple song. Solo is basically just a quick hammer on and pull off of the top string. 
Suggest correction
Creating personal tab
Creating personal tab
You can edit any tab online and save it as your Personal.

You can edit, replace or remove any tab part or add personal notes – all changes will be seen only by you.

Personal tabs can be accessed anytime from any device, even offline.
Learn more »
comments
print report bad tab
1 comment total.
0 reply
Nels0111 33 Nov 28, 2016 06:43 AM

Nice job, but if u tune it do DADGBE, it becomes even more easy ( and better ) to play

guest
You may want to rate the tab now too:
select rating
Wanna post a correction for this tab? Suggest correction