Oops, an error
Loading. Please wait.

Promise You Anything Tab

119 views 1 this week
no commentswrite comment
1 2 3 4 5
please rate
add to favorites
launch autoscroll
font size
0
reset
how to read this tab
guitar tuner
Tab Pro tools
  • play this tab
  • loop segment
  • change instrument
  • show fretboard
  • metronome
×
Best way to learn
"Promise You Anything"
Autoscroll
slow
fast
+/-
esc
set tempo
stop
Contributor
-------------------------------------------------------------------------------
                             Promise you anything- Riddlin kids
-------------------------------------------------------------------------------
Tabbed by: TheTroy
Tuning: Standard

Intro - guitar 1
e|---------------------------------------------------------------------------|
B|-7----7--7--7--7--7--7-----------------------------------------------------|
G|-9b11-11-11-11-11-11-11----------------------------------------------------|
D|---------------------------------------------------------------------------|
A|---------------------------------------------------------------------------|
E|---------------------------------------------------------------------------|

Intro Guitar 2
e|---------------------------------------------------------------------------|
B|---------------------------------------------------------------------------|
G|-4-4-4-4-------------------------------------------------------------------|
D|-4-4-4-4-2-2-2-2-4-4-4-4-2-2-2-2-------------------------------------------|
A|-2-2-2-2-2-2-2-2-4-4-4-4-2-2-2-2-------------------------------------------|
E|---------0-0-0-0-2-2-2-2-0-0-0-0-------------------------------------------|

Verse- intro of guitar 2

Chorus - same as verse except for this little riffy
e|---------------------------------------------------------------------------|
B|---------------------------------------------------------------------------|
G|---------------------------------------------------------------------------|
D|---------------------------------------------------------------------------|
A|-4-6-7~--4-6-7-7~----------------------------------------------------------|
E|---------------------------------------------------------------------------|

play verse (verse has new little riffy)
e|-7-------------------------------------------------------------------------|
B|---7---7-9-7---7------7----7-9-7---7---------------------------------------|
G|-----8-------8---9b11---11-------8-----------------------------------------|
D|---------------------------------------------------------------------------|
A|---------------------------------------------------------------------------|
E|---------------------------------------------------------------------------|

play chorus

bridge
e|---------------------------------------------------------------------------|
B|---------------------------------------------------------------------------|
G|-4-4-4-4-4-4-4-4-6-6-6-6-6-6-6-6-9-9-9-9-9-9-9-9-13-13-13-13-13-13---------|
D|-x-x-x-x-x-x-x-x-x-x-x-x-x-x-x-x-x-x-x-x-x-x-x-x-x--x--x--x--x--x----------|
A|-2-2-2-2-2-2-2-2-4-4-4-4-4-4-4-4-7-7-7-7-7-7-7-7-11-11-11-11-11-11---------|
E|---------------------------------------------------------------------------|

e|-----------------4-4-4-4-4-4-4-4-----------------4-4-4-4-4-4-4-4-----------|
B|-----------------5-5-5-5-5-5-5-5-----------------5-5-5-5-5-5-5-5-----------|
G|-----------------6-6-6-6-6-6-6-6-----------------6-6-6-6-6-6-6-6-----------|
D|-----------------6-6-6-6-6-6-6-6-4-4-4-4-4-4-4-4-6-6-6-6-6-6-6-6-4-4-4-4---|
A|-----------------4-4-4-4-4-4-4-4-4-4-4-4-4-4-4-4-4-4-4-4-4-4-4-4-4-4-4-4---|
E|-4-4-6-6-7-7-9-9-----------------2-2-2-2-2-2-2-2-----------------2-2-2-2---|

e|---------------------------------------------------------------------------|
B|---------------------------------------------------------------------------|
G|---------------------------------------------------------------------------|
D|-4-4-4-4-------------------------------------------------------------------|
A|-4-4-4-4-------------------------------------------------------------------|
E|-2-2-2-2-------------------------------------------------------------------|

play chorus then go to end


| /  slide up
| \  slide down
| h  hammer-on
| p  pull-off
| ~  vibrato
| +  harmonic
| x  Mute note
===============================================================================
comments
We did not receive enough feedback on this tab! Please rate:
print report bad tab
1 2 3 4 5
I want to post or [tab]
guest
You may want to rate the tab now too:
select rating
Please do not post tabs as comments. Select "correction" instead!