Oops, an error
Loading. Please wait.

Revenge Tab

22 views 1 this week
no commentswrite comment
1 2 3 4 5
please rate
add to favorites
launch autoscroll
font size
0
reset
how to read this tab
guitar tuner
Tab Pro tools
  • play this tab
  • loop segment
  • change instrument
  • show fretboard
  • metronome
Autoscroll
slow
fast
+/-
esc
set tempo
stop
Contributor
-------------------------------------------------------------------------------
                             Revenge - Riddlin Kids
-------------------------------------------------------------------------------
Tabbed by: TheTroy
Tuning: Standard

e|---------------------------------------------------------------------------|
B|---------------------------------------------------------------------------|
G|-9-9--9-9-----------------9-9--9-9-----------------------------------------|
D|-9-9--9-9--9-9--7-7--6-7--9-9--9-9--9-9--7-7--7-6-2------------------------|
A|-7-7--6-6--9-9--7-7--6-7--7-7--6-6--9-9--7-7--7-6-2------------------------|
E|-----------7-7--5-5--4-5------------7-7--5-5--5-4-0------------------------|

little itty riff of guitar 2
e|---------------------------------------------------------------------------|
B|-16h17-16h17-16h17-16h17-16h17---------------------------------------------|
G|---------------------------------------------------------------------------|
D|---------------------------------------------------------------------------|
A|---------------------------------------------------------------------------|
E|---------------------------------------------------------------------------|


if anyone gets the restof the song please tell me
comments
We did not receive enough feedback on this tab! Please rate:
print report bad tab
1 2 3 4 5
I want to post or [tab]
guest
You may want to rate the tab now too:
select rating
Please do not post tabs as comments. Select "correction" instead!