Oops, an error
Loading. Please wait.

See The Light Tab

171 views 1 this week
no commentswrite comment
1 2 3 4 5
accurate
x 3
add to favorites
launch autoscroll
font size
0
reset
how to read this tab
guitar tuner
Autoscroll
slow
fast
+/-
esc
set tempo
stop
Help us to improve Ultimate-Guitar.com Take our survey!
×
Author
-------------------------------------------------------------------------------
                             See the light - Riddlin Kids
-------------------------------------------------------------------------------

By:Zero is Great man
Standard(Right)Tunning: EADGBe
Play with Distortion and maybe some Chorus for the second guitar.

Both Guitars: Intro
e|------------------------------------|------------------------------------|
B|------------------------------------|------------------------------------|
G|-7-7-7-7----------------------------|-7-7-7-7----------------------------|
D|-7-7-7-7--7-7-7-7--2-2-2-2--5-5-5-5-|-x-x-x-x--7-7-7-7--2-2-2-2--5-5-5-5-|
A|-5-5-5-5--7-7-7-7--2-2-2-2--5-5-5-5-|-5-5-5-5--x-x-x-x--x-x-x-x--x-x-x-x-|
E|----------5-5-5-5--0-0-0-0--3-3-3-3-|----------5-5-5-5--0-0-0-0--3-3-3-3-|

Guitar 1: Verse
e|------------------------------------|------------------|
B|------------------------------------|------------------|
G|-7-7-7-7----------------------------|-7----------------|
D|-7-7-7-7--7-7-7-7--5-5-5-5--7-7-7-7-|-7--7--5--x-x-x-x-|
A|-5-5-5-5--7-7-7-7--5-5-5-5--7-7-7-7-|-5--7--5--x-x-x-x-|
E|----------5-5-5-5--3-3-3-3--5-5-5-5-|----5--3--x-x-x-x-|
                                                |--p.m--|

Guitar 2: Verse fill
e|------------------------------------|
B|------------------------------------|
G|-7-----------------9-----12-11-9-11-|
D|-x--------7--------x-----xx-x--x-x--|
A|-5--------x--------7-----10-9--7-9--|
E|----------5-------------------------|

Guitar 1:chorus                        Post Chorus fill(w/ choppy rythem)
e|------------------------------------|---------------------------------|
B|------------------------------------|---------------------------------|
G|-------------------7-7-7-7----------|---------------------------------|
D|-9-9-9-9--5-5-5-5--7-7-7-7--7-7-7-7-|-5-5-5-5-5-5-5-5-5-5-5-5-5-5-5-5-|
A|-9-9-9-9--5-5-5-5--5-5-5-5--7-7-7-7-|-x-x-x-x-x-x-x-x-x-x-x-x-x-x-x-x-|
E|-7-7-7-7--3-3-3-3-----------5-5-5-5-|-3-3-3-3-3-3-3-3-3-3-3-3-3-3-3-3-|

Guitar 2: chorus fill
e|---------------------|
B|---------------------|
G|-7---9--12--12--7--5-|
D|-x---x--xx--xx--x--x-|
A|-5---7--10--10--9--7-|
E|---------------------|

Guitar 1: Pick slide  |Both Guitars: (Bridge w/choppy rhythem)
e|--------|           |-----------------------------------|
B|--------|           |-----------------------------------|
G|--------|           |-7-7-7-7-7-7-7-7-7-7-7-7-7-7-7-7-7-|
D|--------|           |-x-x-x-x-x-x-x-x-x-x-x-x-x-x-x-x-x-|
A|--------|           |-5-5-5-5-5-5-5-5-5-5-5-5-5-5-5-5-5-|
E|-15--/3-|           |-----------------------------------|

Both Guitars: Outro
e|---------------------------------------------|
B|---------------------------------------------|
G|-------------------------------------------7-|
D|-5-5-5-5-5-5-5-5-5-12-12-12-12-12-12-12-12-7-|
A|-x-x-x-x-x-x-x-x-x-x--x--x--x--x--x--x--x--5-|
E|-3-3-3-3-3-3-3-3-3-10-10-10-10-10-10-10-10---|


Ok, That's all, everything in the song ok, Don't be scared to comment
or correct, though I doubt that it needs any. Enjoy!
===============================================================================
Suggest correction
What's this?
You can suggest a correction to this tab. Community and Mods will review your correction and vote to approve or reject it.
comments
We did not receive enough feedback on this tab! Please rate:
print report bad tab
1 2 3 4 5
guest
You may want to rate the tab now too:
select rating
Please do not post tabs as comments. Select "correction" instead!