Oops, an error
Loading. Please wait.

Stop The World Tab

version 2
version 2

Whole song

860 views 3 this week
no commentswrite comment
1 2 3 4 5
please rate
add to favorites
launch autoscroll
font size
0
reset
how to read this tab
guitar tuner
Autoscroll
slow
fast
+/-
esc
set tempo
stop
Help us to improve Ultimate-Guitar.com Take our survey!
×
Author
-------------------------------------------------------------------------------
                             Stop the world - riddlin kids
-------------------------------------------------------------------------------
Tabbed by: TheTroy
Tuning: standard

intro
e|---------------------------------------------------------------------------|
B|---------------------------------------------------------------------------|
G|---------------6-6-------------6-6-----------------------------------------|
D|-2/4-4-4-4-7-7-6-6-4-4-4-4-7-7-6-6-4-4-4-4---------------------------------|
A|-2/4-4-4-4-7-7-4-4-4-4-4-4-7-7-4-4-4-4-4-4-9-9-7-7-4-4-9-9-7-7-11-11-------|
E|-0/2-2-2-2-5-5-4-4-2-2-2-2-5-5-4-4-2-2-2-2-7-7-5-5-2-2-7-7-5-5-9--9--------|

chorus
e|--------------------------------|--|---------------------------------------|
B|--------------------------------|--|---------------------------------------|
G|-----------------9---9----------|--|-7~------------------------------------|
D|-4---6---7---9---9---9---9---9--|X3|-7~-7~---2-----------------------------|
A|-4---6---7---9---7-0-7-0-9---9--|--|-5~-7~---2-----------------------------|
E|-2-0-4-0-5-0-7-0---------7-0-7-0|--|----5~---0-----------------------------|

second guitar part
e|--------9-----------9------------------------------------------------------|
B|---------------------------------------------------------------------------|
G|-9-11-9---11-9-11-9---11-11------------------------------------------------|
D|---------------------------------------------------------------------------|
A|---------------------------------------------------------------------------|
E|---------------------------------------------------------------------------|

bridge (repeat a few times)
e|---------------------------------------------------------------------------|
B|---------------------------------------------------------------------------|
G|-----11--------------------------------------------------------------------|
D|-9~--11--------------------------------------------------------------------|
A|-9~--9---------------------------------------------------------------------|
E|-7~------------------------------------------------------------------------|

solo
e|-----------------------------------------------------9~--------------------|
B|--7-7-7-7-7-7-7-7-7-7-7-7-7-7-7-7-7-7-9-9-9-10-10-10-12b14~----------------|
G|---------------------------------------------------------------------------|
D|---------------------------------------------------------------------------|
A|---------------------------------------------------------------------------|
E|---------------------------------------------------------------------------|

THE END


| /  slide up
| \  slide down
| h  hammer-on
| p  pull-off
| ~  vibrato
| +  harmonic
| x  Mute note
===============================================================================
Suggest correction
Give kudos to tab author, rate the tab!
1 2 3 4 5
comments
print report bad tab
guest
You may want to rate the tab now too:
select rating
Please do not post tabs as comments. Select "correction" instead!