Oops, an error
Loading. Please wait.

Talk Of The Town Tab

90 views 1 this week
no commentswrite comment
1 2 3 4 5
please rate
add to favorites
launch autoscroll
font size
0
reset
how to read this tab
guitar tuner
Tab Pro tools
  • play this tab
  • loop segment
  • change instrument
  • show fretboard
  • metronome
Autoscroll
slow
fast
+/-
esc
set tempo
stop
Contributor
-------------------------------------------------------------------------------
                             Talk of the town - riddlin kids
-------------------------------------------------------------------------------
Tabbed by: TheTroy
Tuning: Standard

Intro
e|---------------------------------------------------------------------------|
B|---------------------------------------------------------------------------|
G|-5-5-x-x-5-5-x-x-5-5-x-x-5-5-x-x-5-5-x-x-5-5-x-x-5-5-x-x-5-5-x-x-----------|
D|-5-5-x-x-5-5-x-x-5-5-x-x-5-5-x-x-5-5-x-x-5-5-x-x-5-5-x-x-5-5-x-x-----------|
A|-3-3-x-x-3-3-x-x-3-3-x-x-3-3-x-x-3-3-x-x-3-3-x-x-3-3-x-x-3-3-x-x-----------|
E|---------------------------------------------------------------------------|

verse
e|---------------------------------------------------------------------------|
B|---------------------------------------------------------------------------|
G|-5-5-5-5-----------------------------------------5-5-5-5-5-5-5-5-----------|
D|-5-5-5-5-5-5-5-5-7-7-7-7-2-2-2-2-3-3-3-3-3-3-3-3-5-5-5-5-5-5-5-5-----------|
A|-3-3-3-3-5-5-5-5-7-7-7-7-2-2-2-2-3-3-3-3-3-3-3-3-3-3-3-3-3-3-3-3-----------|
E|---------3-3-3-3-5-5-5-5-0-0-0-0-1-1-1-1-1-1-1-1---------------------------|
   . .   . . .   . . .   . . .   . . .   . . .   . . .   . .   . .

pre-chorus
e|---------------------------------------------------------------------------|
B|---------------------------------------------------------------------------|
G|---------------------------------5-5-x-x-5-5-x-x-5-5-x-x-5-5-x-x-----------|
D|-3-3-3-3-3-3-3-3-5-5-5-5-5-5-5-5-5-5-x-x-5-5-x-x-5-5-x-x-5-5-x-x-----------|
A|-3-3-3-3-3-3-3-3-5-5-5-5-5-5-5-5-3-3-x-x-3-3-x-x-3-3-x-x-3-3-x-x-----------|
E|-1-1-1-1-1-1-1-1-3-3-3-3-3-3-3-3-------------------------------------------|

chorus 
e|---------------------------------------------------------------------------|
B|---------------------------------------------------------------------------|
G|-5---------------------5---------------------5-----------------------------|
D|-5-3-x-7-7-x-5-5-5-5-5-5-3-x-7-7-x-5-5-5-5-5-5-3-x-7-7-x-5-5-5-5-5---------|
A|-3-3-x-7-7-x-5-5-5-5-5-3-3-x-7-7-x-5-5-5-5-5-3-3-x-7-7-x-5-5-5-5-5---------|
E|---1-x-5-5-x-3-3-3-3-3---1-x-5-5-x-3-3-3-3-3---1-x-5-5-x-3-3-3-3-3---------|

e|---------------------------------------------------------------------------|
B|---------------------------------------------------------------------------|
G|-5-------------------------------------------------------------------------|
D|-5-3-x-7-7-7-7-7-7-7-7-5-5-5-5-5-5-5-5-------------------------------------|
A|-3-3-x-7-7-7-7-7-7-7-7-5-5-5-5-5-5-5-5-------------------------------------|
E|---1-x-5-5-5-5-5-5-5-5-3-3-3-3-3-3-3-3-------------------------------------|

play intro

play verse

play pre-chorus

play chorus

Bridge
e|---------------------------------------------------------------------------|
B|---------------------------------------------------------------------------|
G|-5-5-5-5-5-5-5-5-----------------------------------------------------------|
D|-5-5-5-5-5-5-5-5-5-5-5-5-5-5-5-5-7-7-7-7-7-7-7-7-5-5-5-5-5-5-5-5-----------|
A|-3-3-3-3-3-3-3-3-5-5-5-5-5-5-5-5-7-7-7-7-7-7-7-7-5-5-5-5-5-5-5-5-----------|
E|-----------------3-3-3-3-3-3-3-3-5-5-5-5-5-5-5-5-3-3-3-3-3-3-3-3-----------|

play chorus

play intro until end

| /  slide up
| \  slide down
| h  hammer-on
| p  pull-off
| ~  vibrato
| +  harmonic
| x  Mute note
| .  palm mute
===============================================================================
comments
We did not receive enough feedback on this tab! Please rate:
print report bad tab
1 2 3 4 5
I want to post or [tab]
guest
You may want to rate the tab now too:
select rating
Please do not post tabs as comments. Select "correction" instead!