Oops, an error
Loading. Please wait.

Turn Around Tab

245 views 1 this week
no commentswrite comment
1 2 3 4 5
please rate
add to favorites
launch autoscroll
font size
0
reset
how to read this tab
guitar tuner
Autoscroll
slow
fast
+/-
esc
set tempo
stop
Help us to improve Ultimate-Guitar.com Take our survey!
×
Author
-------------------------------------------------------------------------------
                             Turn Around - Riddlin Kids
-------------------------------------------------------------------------------
Tabbed by: TheTroy
Tuning: Standard

Intro (its tricky. practice)
e|---------------------------------------------------------------------------|
B|---------------------------------------------------------------------------|
G|-4-4-/-16--8-9-8-9---------------------------------------------------------|
D|-4-4-/-x---x-x-x-x---------------------------------------------------------|
A|-2-2-/-14--6-7-6-7---------------------------------------------------------|
E|---------------------------------------------------------------------------|

Verse
e|------------------------|--|-----------------------------------------------|
B|------------------------|--|-----------------------------------------------|
G|-4-4------4-4----8-9-8-9|--|-----------------------------------------------|
D|-4-4------4-4----x-x-x-x|X2|----7-7-7-7-7-7-7-7-6-6-6-6-6-6-6-6------------|
A|-2-2------2-2----6-7-6-7|--|----7-7-7-7-7-7-7-7-6-6-6-6-6-6-6-6------------|
E|------------------------|--|-xx-5-5-5-5-5-5-5-5-4-4-4-4-4-4-4-4------------|

Chorus
e|---------------------------------------------------------------------------|
B|---------------------------------------------------------------------------|
G|-4-4-4-4-6-6-6-6-----------------------------------------------------------|
D|-4-4-4-4-6-6-6-6-2-2-2-2-4-4-4-4-------------------------------------------|
A|-2-2-2-2-4-4-4-4-2-2-2-2-4-4-4-4-------------------------------------------|
E|-----------------0-0-0-0-2-2-2-2-------------------------------------------|

play intro

play verse

play chorus


e|----------------------------------------------------------------|--|-------|
B|----------------------------------------------------------------|--|-------|
G|---------------------------------4-4-4-4-4-4-4-4-4-4-4-4-4-4-4-4|--|-------|
D|-2-2-2-2-2-2-2-2-4-4-4-4-4-4-4-4-4-4-4-4-4-4-4-4-4-4-4-4-4-4-4-4|X2|-------|
A|-2-2-2-2-2-2-2-2-4-4-4-4-4-4-4-4-2-2-2-2-2-2-2-2-2-2-2-2-2-2-2-2|--|-------|
E|-0-0-0-0-0-0-0-0-2-2-2-2-2-2-2-2--------------------------------|--|-------|

e|---------------------------------------------------------------------------|
B|---------------------------------------------------------------------------|
G|---------------------------------------------------------------------------|
D|-7-7-7-7-7-7-7-7-4-4-4-4-4-4-4-4-------------------------------------------|
A|-7-7-7-7-7-7-7-7-4-4-4-4-4-4-4-4-------------------------------------------|
E|-5-5-5-5-5-5-5-5-2-2-2-2-2-2-2-2-------------------------------------------|

play chorus

play intro to end

| /  slide up
| \  slide down
| h  hammer-on
| p  pull-off
| ~  vibrato
| +  harmonic
| x  Mute note
===============================================================================
Suggest correction
Give kudos to tab author, rate the tab!
1 2 3 4 5
comments
print report bad tab
guest
You may want to rate the tab now too:
select rating
Please do not post tabs as comments. Select "correction" instead!