Oops, an error
Loading. Please wait.

Dreams Burn Down tab

by Ride
727 views 18 this week
1 commentread comment
1 2 3 4 5
x 4
add to favorites
×
Save as Personal and add changes to this tab that will be seen only by you. Learn more ›
×
You can save this tab as Personal to edit and correct it or add notes. All changes will be seen only by you. Learn more »
launch autoscroll
font size
0
reset
how to read this tab
guitar tuner
edit
Autoscroll
slow
fast
+/-
esc
set tempo
stop
About this tab version
There were no tabs for this song, it was done by using live shows for figuring out what Mark Gardener plays. Was this info helpful? Yes No
Okay, here is my tab of "Dreams Burn Down" by Ride, from the album Nowhere (1990)

A Few notes, so far this tab is only for the Rhythm Guitar (Mark Gardener), i will try to put the Lead Guitar
tab (Andy Bell) when i finally "decipher" what is Andy playing

To play this song, you need a few things, first, you need a ton of reverb (a Shoegaze standard lol), an
Overdrive or Distortion and finally, is not completly necessary, but is what i hear and i have seen in live
shows, is a tremolo bar, from a Stratocaster, a Jaguar, a Jazzmaster, etc. 
Something like that, Mark Gardener plays a Fender Jaguar in this case, you need to play and strum at the same
time, something that My Bloody Valentine also does (Glide Guitar)

Also, listen to the song really carefully, because with the amount of Drive and Reverb is kind of hard to
do the exact strum, so i put the tab, but you figure out the strum.

Comment any correction or suggestion! here is the tab!

Guitar 1 (Drive + Reverb + Tremolo Bar*):

[Intro]


E|----2-2-2-2-2----2-2-2-2-2----3-3-3-3-3----0-0-0-0-0----0-0-0---|
B|----3-3-3-3-3----2-2-2-2-2----3-3-3-3-3----2-2-2-2-2----0-0-0---|
G|----2-2-2-2-2----2-2-2-2-2----0-0-0-0-0----2-2-2-2-2----0-0-0---|
D|----0-0-0-0-0----4-4-4-4-4----0-0-0-0-0----2-2-2-2-2----2-2-2---| x2
A|----0-0-0-0-0----4-4-4-4-4----2-2-2-2-2----0-0-0-0-0----2-2-2---|
E|-----------------2-2-2-2-2----3-3-3-3-3-----------------0-0-0---|

[Verse]

"Lying under sky..."



E|----2-2-2-2-2----2-2-2-2-2----3-3-3-3-3----0-0-0-0-0----0-0-0---|
B|----3-3-3-3-3----2-2-2-2-2----3-3-3-3-3----2-2-2-2-2----0-0-0---|
G|----2-2-2-2-2----2-2-2-2-2----0-0-0-0-0----2-2-2-2-2----0-0-0---|
D|----0-0-0-0-0----4-4-4-4-4----0-0-0-0-0----2-2-2-2-2----2-2-2---| x2
A|----0-0-0-0-0----4-4-4-4-4----2-2-2-2-2----0-0-0-0-0----2-2-2---|
E|-----------------2-2-2-2-2----3-3-3-3-3-----------------0-0-0---|



[Chorus]

"Waiting, hoping for a sign..."


E|----2-2-2-2-2----3-3-3-3-3----|
B|----3-3-3-3-3----3-3-3-3-3----|
G|----2-2-2-2-2----0-0-0-0-0----|
D|----0-0-0-0-0----0-0-0-0-0----| x1
A|----0-0-0-0-0----2-2-2-2-2----|
E|-----------------3-3-3-3-3----|



E|----4-4-4-4-----2-2-2-|
B|----3-3-3-3-----3-3-3-|
G|----2-2-2-2-----2-2-2-|
D|----0-0-0-0-----0-0-0-|  x4
A|----------------------|
E|----------------------|

"I just want what I can't have..."

E|----0-0-0-0-0----3-3-3-3-3----|
B|----2-2-2-2-2----3-3-3-3-3----|
G|----2-2-2-2-2----0-0-0-0-0----|
D|----2-2-2-2-2----0-0-0-0-0----| x1
A|----0-0-0-0-0----2-2-2-2-2----|
E|-----------------3-3-3-3-3----|


E|----4-4-4-4-----2-2-2-|
B|----3-3-3-3-----3-3-3-|
G|----2-2-2-2-----2-2-2-|
D|----0-0-0-0-----0-0-0-|  x4
A|----------------------|
E|----------------------|

The Rhythm guitar plays this, is the lead guitar that does that weird but beautiful noise.


[Verse 2]

"She's effortlessly cool..."



E|----2-2-2-2-2----2-2-2-2-2----3-3-3-3-3----0-0-0-0-0----0-0-0---|
B|----3-3-3-3-3----2-2-2-2-2----3-3-3-3-3----2-2-2-2-2----0-0-0---|
G|----2-2-2-2-2----2-2-2-2-2----0-0-0-0-0----2-2-2-2-2----0-0-0---|
D|----0-0-0-0-0----4-4-4-4-4----0-0-0-0-0----2-2-2-2-2----2-2-2---| x2
A|----0-0-0-0-0----4-4-4-4-4----2-2-2-2-2----0-0-0-0-0----2-2-2---|
E|-----------------2-2-2-2-2----3-3-3-3-3-----------------0-0-0---|


[Chorus]
*Same as before*

"Waiting, hoping for a sign..."


E|----2-2-2-2-2----3-3-3-3-3----|
B|----3-3-3-3-3----3-3-3-3-3----|
G|----2-2-2-2-2----0-0-0-0-0----|
D|----0-0-0-0-0----0-0-0-0-0----| x1
A|----0-0-0-0-0----2-2-2-2-2----|
E|-----------------3-3-3-3-3----|



E|----4-4-4-4-----2-2-2-|
B|----3-3-3-3-----3-3-3-|
G|----2-2-2-2-----2-2-2-|
D|----0-0-0-0-----0-0-0-|  x4
A|----------------------|
E|----------------------|

"I just want what I can't have..."

E|----0-0-0-0-0----3-3-3-3-3----|
B|----2-2-2-2-2----3-3-3-3-3----|
G|----2-2-2-2-2----0-0-0-0-0----|
D|----2-2-2-2-2----0-0-0-0-0----| x1
A|----0-0-0-0-0----2-2-2-2-2----|
E|-----------------3-3-3-3-3----|


E|----4-4-4-4-----2-2-2-|
B|----3-3-3-3-----3-3-3-|
G|----2-2-2-2-----2-2-2-|
D|----0-0-0-0-----0-0-0-|  x4
A|----------------------|
E|----------------------|


[Outro]

E|----0-0-0-0-0----3-3-3-3-3----|
B|----2-2-2-2-2----3-3-3-3-3----|
G|----2-2-2-2-2----0-0-0-0-0----|
D|----2-2-2-2-2----0-0-0-0-0----| x1
A|----0-0-0-0-0----2-2-2-2-2----|
E|-----------------3-3-3-3-3----|


E|----4-4-4-4-----2-2-2-|
B|----3-3-3-3-----3-3-3-|
G|----2-2-2-2-----2-2-2-|
D|----0-0-0-0-----0-0-0-|  x4
A|----------------------|
E|----------------------|

E|----0-0-0-0-0----3-3-3-3-3----|
B|----2-2-2-2-2----3-3-3-3-3----|
G|----2-2-2-2-2----0-0-0-0-0----|
D|----2-2-2-2-2----0-0-0-0-0----| x1
A|----0-0-0-0-0----2-2-2-2-2----|
E|-----------------3-3-3-3-3----|


E|----4-4-4-4-----2-2-2-|
B|----3-3-3-3-----3-3-3-|
G|----2-2-2-2-----2-2-2-|
D|----0-0-0-0-----0-0-0-|  x4
A|----------------------|
E|----------------------|


Finish with....


E|---0---------|
B|---2---------|
G|---2---------|
D|---2---------|
A|---0---------|
E|-------------|

That's all




Lying under sky,
She laughs at everything I say,
And pulls me under.
There's no time to resist.
Lying on the floor,
There's no time to resist,
Lying on the floor,
The tears are falling down and more.
Her eyes speak loud,
But actions speak the best

Waiting, hoping for a sign,
That what's forbidden can be mine.
I just want what I can't have,
Until my dreams burn down every time.

She's effortlessly cool,
But circumstances can be cruel.
And sometimes you must accept,
That you can't always get what you want.
We fill up our days and nights.
We fill up the gaps in our empty little lives.
But we know we are doomed,
The moment we walk out the room.

            
            
Suggest correction
Creating personal tab
Creating personal tab
You can edit any tab online and save it as your Personal.

You can edit, replace or remove any tab part or add personal notes – all changes will be seen only by you.

Personal tabs can be accessed anytime from any device, even offline.
Learn more »
comments
print report bad tab
1 comment total.
0 reply
SwoodHuman 10 Apr 06, 2017 09:47 PM

cool now i juss need that lead

guest
You may want to rate the tab now too:
select rating
Wanna post a correction for this tab? Suggest correction