Oops, an error
Loading. Please wait.

Wonder Why tab

version 1
version 1

Whole song

Interactive

1,513 views 1 this week
1 commentread comment
1 2 3 4 5
3 more votes to show rating
add to favorites
×
Save as Personal and add changes to this tab that will be seen only by you. Learn more ›
×
You can save this tab as Personal to edit and correct it or add notes. All changes will be seen only by you. Learn more »
launch autoscroll
font size
0
reset
how to read this tab
guitar tuner
edit
Autoscroll
slow
fast
+/-
esc
set tempo
stop
Author
==================================
Artist: Rides Again
Song: Wonder Why
Tuning: Db Ab Db Gb Bb eb
==================================



Intro/first verse

|-------------|
|-------------|
|-------------|
|-------------|
|-0x24--------|
|-------0x24--|

verse cont

|-----------------------------------------------|
|-----------------------------------------------|
|-22--22----22--22--2222------------------------|
|-22--22----22--22--2222--00--00----00--00--3322|
|-00--00----00--00--0000--00--00----00--00--3322|
|-------------------------00--00----00--00--3322|
 Can a doctor fix my brain

Pre Chours

|--------------------------------------------------------------|
|---------------------------------------------------3----------|
|-2-2-2-2-2-2-2-2-2-2-2-2-2-2-2-2-2-2-2-2-2-2-2-2---2-let ring-|
|--2-2-2-2-2-2-2-2-4-4-4-4-4-4-4-4-2-2-2-2-2-2-2-2--0----------|
|-************************************************-------------|
|--------------------------------------------------------------|


Chorus

|----------------------|
|----------------------|
|-2--2-2--2--2-2--2-22-|
|-2--2-2--2--2-2--2-22-|x2---------------------|
|-0--0-0--0--0-0--0-00-|                       |
|----------------------|                       |
                                               |
|------------------------------------------|   |------Play twice
|------------------------------------------|   |
|------------------------------------------|   |
|-7/----------------------------------3--2-|---|
|-7/----------------9(pinch)~---------3--2-|
|-7/--00500700900500----------005007003--2-|


post chours

|-------------------------------------|
|-----------------------------------0-|
|-2-2--2-2----------------2-2--2-2--0-|
|-2-2--2-2--0-------------2-2--2-2----|
|-0-0--0-0----4-3---------0-0--0-0----|
|-----------------5-3-2~--------------|

Verse 2

|-----------------------------------------------|
|-----------------------------------------------|
|-22--22----22--22--2222------------------------|
|-22--22----22--22--2222--00--00----00--00--3322|
|-00--00----00--00--0000--00--00----00--00--3322|
|-------------------------00--00----00--00--3322|

|-------------------------|
|-------------------------|
|-2-----------------------|
|-2x24---------0----33-22-|
|-0------------0x24-33-22-|
|--------------0----33-22-|
 
 I never want to be mr. prosperity

Pre chours

|--------------------------------------------------------------|
|---------------------------------------------------3----------|
|-2-2-2-2-2-2-2-2-2-2-2-2-2-2-2-2-2-2-2-2-2-2-2-2---2-let ring-|
|--2-2-2-2-2-2-2-2-4-4-4-4-4-4-4-4-2-2-2-2-2-2-2-2--0----------|
|-pm**********************************************-------------|
|--------------------------------------------------------------|


Chours

|----------------------|
|----------------------|
|-2--2-2--2--2-2--2-22-|
|-2--2-2--2--2-2--2-22-|x2---------------------|
|-0--0-0--0--0-0--0-00-|                       |
|----------------------|                       |
                                               |
|------------------------------------------|   |------Play twice
|------------------------------------------|   |
|------------------------------------------|   |
|-7/----------------------------------3--2-|---|
|-7/----------------9(pinch)~---------3--2-|
|-7/--00500700900500----------005007003--2-|

Bridge

|------------|  |----------------------|
|------------|  |----------------------|
|-2----------|  |-2--------------------|
|-2----3--2--|X2|-2----3--2--0---------|
|-0----3--2--|  |-0----3--2--0let ring-|
|------3--2--|  |------3--2--0---------|

|--5------5-|
|--5--5-5-5-|
|--6--6-6-6-|
|--7--7-7-7-|(clean)strum a bunch of times
|--7--7-7-7-|
|-----------|
 this time i am getting better

|------------------------------------|
|------------------------------------|
|-2----------------------------------|
|-2-------------------------------0--|
|-0-------------------------------0--|
|---------------------------------0--|
 I wonder wonder why..............the same

|--------------------------------||-----------------|
|--------------------------------||-----------------|
|-2------------------------------||-----------------|
|-2------------------------------||-----------------|x4
|-0------------------------------||---------------9-|
|--------------------------------||-00500700900500--|
 I wonder wonder why                we try  

Last chours


Chours

|----------------------|
|----------------------|
|-2--2-2--2--2-2--2-22-|
|-2--2-2--2--2-2--2-22-|x2---------------------|
|-0--0-0--0--0-0--0-00-|                       |
|----------------------|                       |
                                               |
|------------------------------------------|   |------Play twice
|------------------------------------------|   |
|------------------------------------------|   |
|-7/---------------------------------------|---|
|-7/----------7-9-11-12---------7-9-11-12--|
|-7/--00507090-0-0--0---00507090-0-0--0----|


Outro 

|-----------------------------------|
|-----------------------------------|
|-22-22-22--------------22-22-22-0--|
|-22-22-22-0------------22-22-22-0--|
|-00-00-00---4-3--------00-00-00----|
|----------------5-3-2--------------|

|-----------------------------------|
|-----------------------------------|
|-22-22-22--------------22-22-22----|
|-22-22-22-0------------22-22-22-5--|ring out
|-00-00-00---4-3--------00-00-00-5--|
|----------------5-3-2-----------5--|

            
            
Suggest correction
Creating personal tab
Creating personal tab
You can edit any tab online and save it as your Personal.

You can edit, replace or remove any tab part or add personal notes – all changes will be seen only by you.

Personal tabs can be accessed anytime from any device, even offline.
Learn more »
Give kudos to tab author, rate the tab!
1 2 3 4 5
comments
print report bad tab
1 comment total.
0 reply
brazen 115 Feb 24, 2008 10:31 AM

intro is actually continuous A and then D. and the chorus is played differently the first time. and its called a bend not a pinch just so u know.

guest
You may want to rate the tab now too:
select rating
Wanna post a correction for this tab? Suggest correction