Oops, an error
Loading. Please wait.

Wonder Why bass

version 2
version 2

Whole song

Interactive

277 views 1 this week
no commentswrite comment
1 2 3 4 5
3 more votes to show rating
add to favorites
×
Save as Personal and add changes to this tab that will be seen only by you. Learn more ›
×
You can save this tab as Personal to edit and correct it or add notes. All changes will be seen only by you. Learn more »
launch autoscroll
font size
0
reset
guitar tuner
edit
Autoscroll
slow
fast
+/-
esc
set tempo
stop
Author
Difficulty
YOU MUST READ THE BOTTOM OR ELSE YOU WONT GET THIS IS THE ONLY RIGHT ONE.
E|---------------------00-00-00-00-00-0000-|
A|-00-00-00-00-00-0000---------------------|
D|-----------------------------------------|
G|-----------------------------------------|
00:17

E|--000000002222222200000000--|
A|--------------------------3-|
D|----------------------------|
G|----------------------------|
00:28

E|-000000002222222200000000-0000234--|
A|-------------------------3---------|X2
D|-----------------------------------|
G|-----------------------------------|
00:40

E|-00000000000000002222222222222222-|
A|----------------------------------|
D|----------------------------------|
G|----------------------------------|
01:03

E|-00-00-00-00-00-0000---------------------|
A|---------------------00-00-00-00-00-0000-|
D|-----------------------------------------|
G|-----------------------------------------|
01:15

E|-000000000000000222222222222222000000000000000--|
A|----------------------------------------------3-|
D|------------------------------------------------|
G|------------------------------------------------|
01:26

E|-000000002222222200000000-0000234--|
A|-------------------------3---------|
D|-----------------------------------|
G|-----------------------------------|
01:38

E|-000000002222222200000000-00002\3\4\2\3\4\2\3\4\2\3\4-|
A|-------------------------3----------------------------|
D|------------------------------------------------------|
G|------------------------------------------------------|
01:50

E|-000000000000000000000000000000000000000000000000000000000\-|
A|------------------------------------------------------------|
D|------------------------------------------------------------|
G|------------------------------------------------------------|
02:13

E|--0000000222222220000000000-00002345-|
A|---------------------------3---------|X2
D|-------------------------------------|
G|-------------------------------------|
02:41

E|-00000000000000222222222222222\-|
A|--------------------------------|
D|--------------------------------|
G|--------------------------------|

yo so if i made a misstake just comment me on it and i will try to change it ok .but one
misstake EVERYTHING THAT I PUT DOWN FOR E STRING IS PLAYED ON THE A STRING AND EVERY
FOR THE A STRING YOU PLAY ON THE E STRING so SORRY!!

LYRICS

wakeing up past noon again figure out i have no friends sit aaround in derty close
it comes and go can the docter fix my brain no one even knows my name checking all my vinal
maken sure im still alive last time i promised my self i would change i would cange i
wonder why every day we live our lives the same i wonder wonder why we give up before
try to change work a job from 9 till 5 settle for a trophie wife rent a house and buy a
growing up is way to hard i never wanna be mr.prosberity some rules were ment to break
do things my own way last time i promised my self i would change i would change i wonder 
why every day we live our lives the same iw onder wonder why we give up before
try to change this time i am getting better and i feel fine nothing is for ever and i
wonder why we give up before we try to change why cant we change oh oh why cant we why
we change i wonder wonder why every day we live our lives the same i wonder wonder whywe 
up before we try to change this time i promised myself i would change
Suggest correction
Creating personal tab
Creating personal tab
You can edit any tab online and save it as your Personal.

You can edit, replace or remove any tab part or add personal notes – all changes will be seen only by you.

Personal tabs can be accessed anytime from any device, even offline.
Learn more »
Give kudos to tab author, rate the tab!
1 2 3 4 5
comments
print report bad tab
guest
You may want to rate the tab now too:
select rating
Wanna post a correction for this tab? Suggest correction