Oops, an error
Loading. Please wait.
80 views 1 this week
no commentswrite comment
1 2 3 4 5
please rate
add to favorites
launch autoscroll
font size
0
reset
how to read this tab
guitar tuner
Autoscroll
slow
fast
+/-
esc
set tempo
stop
Help us to improve Ultimate-Guitar.com Take our survey!
×
----------------------------------------------------------------------------
        Final Notice - Riding Alone for Thousands of Miles
----------------------------------------------------------------------------
Tabbed by: Xeros


Tuning: Half-Step Down


Gtr.1 starting at 1:15 (play 3 times)

eb|----------------------------------|-------------------------------------|
Bb|----------------------------------|-------------------------------------|
F#|---5--5---5--5--5--5--5---5--5--5-|---5--5---5--5--5--5-55555555--------|
Db|---7--7---7--7--7--7--7---7--7--7-|---7--7---7--7--7--7-77777777--------|
G#|-00-00-088-88-88-77-77-7--7--7--7-|-00-00-088-88-77-77-777777777--------|
Eb|------------------------55-55-55--|---------------------55555555--------|


Gtr. 2 staring at 1:24

eb|------------------------------------------------------0-----------------|
Bb|------------------------------------------------------1-----------------|
F#|------------------------------------------------------2-----------------|
Db|--2-232-2-32-2-----2-232-2-32-2-----2-232-2-32-2------2-----------------|
G#|-0-0---0-0--0-----0-0---0-0--0-----0-0---0-0--0-------0-----------------|
Eb|------------------------------------------------------------------------|

Gtr. 1 riff when drums enter

eb|------------------------------------------------------------------------|
Bb|------------------------1---1-1-----------------------------------------|
F#|----------------------222222222-----------------------------------------|
Db|----------------222222222222222-----------------------------------------|
G#|-777777733333333000000000000000-----------------------------------------|
Eb|-555555511111111--------------------------------------------------------|

Gtr.2 starting at 2:18

eb|------------------------------------------------------------------------|
Bb|---------------------1--------------------------------------------------|
F#|--------------------2-2-2-----------------------------------------------|
Db|--2-232-2-32-2-232-2---2------------------------------------------------|
G#|-0-0---0-0--0-0---0-----------------------------------------------------|
Eb|------------------------------------------------------------------------|

eb|----------------------------------------5555-----888877777--------------|
Bb|-------------------666655555555555666666----66666-----------------------|
F#|-555544444777755555-----------------------------------------------------|
Db|------------------------------------------------------------------------|
G#|------------------------------------------------------------------------|
Eb|------------------------------------------------------------------------|

eb|-5555-----888877777101010101088888888887777755555555^655^65^5/1717171717|
Bb|-----66666--------------------------------------------------------------|
F#|------------------------------------------------------------------------|
Db|------------------------------------------------------------------------|
G#|------------------------------------------------------------------------|
Eb|------------------------------------------------------------------------|

Gtr. 1

eb|------------------------------------------------------------------------|
Bb|------------------------------------------------------------------------|
F#|-555544444777755555101010109999999999999999-----------------------------|
Db|-xxxxxxxxxxxxxxxxxxx-x-x-x-xxxxxxxxxxxxxxxx-----------------------------|
G#|-3333222225555333338-8-8-8-7777777777888888-----------------------------|
Eb|------------------------------------------------------------------------|

eb|------------------------------------------------------------------------|
Bb|------------------------------------------------------------------------|
F#|----------555544444----------555544444----------------------------------|
Db|-777733333xxxxxxxxx-777733333xxxxxxxxx----------------------------------|
G#|-xxxxxxxxx333322222-xxxxxxxxx333322222----------------------------------|
Eb|-555511111----------555511111-------------------------------------------|

eb|------------------------------------------------------------------------|
Bb|---------------------------------------1--------------------------------|
F#|-777755555555554444442222222222222222222--------------------------------|
Db|-xxxxxxxxxxxxxxxxxxxxxxxxxxxxxxxxxxxxxx2--------------------------------|
G#|-555533333333332222220000000000000000000--------------------------------|
Eb|------------------------------------------------------------------------|

These are the basic riffs of the first half of the song although some fills are missing. 
I don't know about the end
Suggest correction
Give kudos to tab author, rate the tab!
1 2 3 4 5
comments
print report bad tab
guest
You may want to rate the tab now too:
select rating
Please do not post tabs as comments. Select "correction" instead!