Oops, an error
Loading. Please wait.

Kinder Panchito tab

11 views 1 this week
no commentswrite comment
1 2 3 4 5
3 more votes to show rating
add to favorites
×
Save as Personal and add changes to this tab that will be seen only by you. Learn more ›
×
You can save this tab as Personal to edit and correct it or add notes. All changes will be seen only by you. Learn more »
launch autoscroll
font size
0
reset
how to read this tab
guitar tuner
edit
Autoscroll
slow
fast
+/-
esc
set tempo
stop
No puedo creer que haya tan pocas canciones del riesgo, 
asi que mi primo y yo vamos a tener que enseñarles unas cuantas
porque parece que todos uds. estan bien pendejos.


Intro-Verso

e ----------3--5-----5-----3--6--5--3-------
B ----------3--5-----5-----3--6--5--3-------
G ----------4--6-----6-----4--7--6--4-------
D -----2----5--7-----7--2--5--8--7--5-------
A -----2----5--7-----7--2--5--8--7--5-------
E -----0----3--5-----5--0--3--6--5--3-------
 
'Me persiguen desde ayer...'

Despues este pequeño puente que es puro SOL

e ------------------
B ------------------
G ------------------
D ----55--0--55--0--
A ----55--0--55--0--
E ----33--0--33--0--

La primera vez no hay voz en esta parte, la  segunda vez es cuando 
 se oye la voz que dice 'Ahora si guey, vamos a ver quien
es el mas chingoncito..'

Y el otro cambio de ritmo es

e -------------3---5--
B -------------3---5--
G -------------4---6--
D -----2222----5---7--
A -----2222----5---7--
E -----0000----3---5--

'No te metas con mi hermano...'


El final es:

e ---333---555---666666---55------333-----6666---
B ---333---555---666666---55------333-----6666---
G ---444---666---777777---66------444-----7777---
D ---555---777---888888---77------555-----8888---
A ---555---777---888888---77------555-----8888---
E ---333---555---666666---55------333-----6666---


'En la feria de cepillin...'


AHI ESTA. POBRE DE AQUEL QUE DIGA QUE ESTA MAL, PORQUE NETO
QUE SE VERIA DEMASIDO GUEY.  PONGAN MAS ROLAS DEL RIESGO Y DE
LA SEKTA CORE.

PROXIMEMENTE COME PASTO, MONITOS, TU ME DAS ASCO Y A VER
SI OTRAS. LO VOY A PENSAR.
Suggest correction
Creating personal tab
Creating personal tab
You can edit any tab online and save it as your Personal.

You can edit, replace or remove any tab part or add personal notes – all changes will be seen only by you.

Personal tabs can be accessed anytime from any device, even offline.
Learn more »
Give kudos to tab author, rate the tab!
1 2 3 4 5
comments
print report bad tab
guest
Wanna post a correction for this tab? Suggest correction