Oops, an error
Loading. Please wait.

Alas Del Mal tab

by Riff
106 views 3 this week
no commentswrite comment
1 2 3 4 5
3 more votes to show rating
add to favorites
×
Save as Personal and add changes to this tab that will be seen only by you. Learn more ›
×
You can save this tab as Personal to edit and correct it or add notes. All changes will be seen only by you. Learn more »
launch autoscroll
font size
0
reset
how to read this tab
guitar tuner
edit
Autoscroll
slow
fast
+/-
esc
set tempo
stop
Intro:
1° Bateria
2° Bajo en MI
3° Riff 1 de base (x2)
4° Riff 2 (x2) con base riff 1 (x4)

x:Golpea con la pua las cuerdas con os deos sin presionar en esos
trastes. Es como una base de blues. Escuchen el tema para entender


Guitarra 1:

Riff 1: Base
 E5
e------------------|
B------------------|
G-1-x-1-x-1-x-1-1v-|
D-2-x-2-x-2-x-2-2v-|
A-2-x-2-x-2-x-2-2v-|
E-0-0-0-0-0-0-0-0--|

Riff 2:
  E5
e-7-7-7-7-7-7-7-7-7-7-7-7--5-4-5-4---------------------|
B----------------------------------5-5-5-5-5-5-5-5-5-5-|
G------------------------------------------------------|
D------------------------------------------------------|
A------------------------------------------------------|
E------------------------------------------------------|

----------------------------------------------------------------------

Riff 3:

 B5/C#5 (x3)         B5  Bb5 F#5  E5 F#5 E5
e------------------|------------------------|
B------------------|------------------------|
G------------------|------------------------|
D-4/6---4/6---4/6--|--4---3---------------9-|
A-2/4---4/6---4/6--|--2---1---4---2---4---7-|
E------------------|----------2---0---2-----|

Riff 4:

 B5/C#5 (x3)         B5  Bb5 F#5 F#5
e------------------|----------------|
B------------------|----------------|
G------------------|----------------|
D-4/6---4/6---4/6--|--4---3---------|
A-2/4---4/6---4/6--|--2---1---4---4-|
E------------------|----------2---2-|


Riff 3
Cuando el viento se agita, entre las alas del mal
Riff 4
y mi alma entre tu alma, dejaré de pensar
Riff 3
diré ser profundo, si obtuvo una razón
Riff 4
pasado de este mundo, donde el resto soy yo


Estribillo:

          D5     A5       E5
Un barrio chino te ofreceré
          D5    A5      E5
en donde nadie se tenga fe
        D5   A5        E5
donde todos canten en sol
          D5   A5           B5 (riff 4)
y sientan música en su interior


Riff 4:
e------------------------------------------|-------------------------|
B------------------------------------------|-------------------------|
G------------------------------------------|-------------------------|
D------------------------------------------|-------------------------|
A-9--11--11--9---9--11--11--9-------9------|-9--11--11--9---11-11--9-|
E-7---7---7--7---7--7----7--7--7h10---10p7-|-7---7---7--7----7--7--7-|

----------------------------------------------------------------------

Inter 1:
Riff 1 (x2)
Riff 2 (x2) con base riff 1 (x4)

----------------------------------------------------------------------

Riff 3
Ven por favor, no me hagas esperar
Riff 4
aparte de todo esto, yo te quiero mostrar
Riff 3
vecinos orientales que confían en su ser
Riff 4
y mágicas personas que preguntan, quién es usted?

          D5     A5       E5
Un barrio chino te ofreceré
          D5    A5      E5
en donde nadie se tenga fe
        D5   A5        E5
donde todos canten en sol
          D5   A5           B5 (riff 4)
y sientan música en su interior

----------------------------------------------------------------------

Inter 2:

Solo: Si alguien lo tiene que lo mande
e----------------|  |----------------|  |--------------7---7h9p7/12--
B----------------|  |--9e--7---7/9---|  |-9-------7h9p7--9----------
G----------------|  |--------9-----6-|  |--9s--6h9-----------------
D----------------|x2|----------------|x2|--------------------------
A--7--5-4-5/7----|  |----------------|  |--------------------------
E--------------5-|  |----------------|  |--------------------------

Riff 1 (x2)
Riff 2 (x2) con base riff 1 (x4)

----------------------------------------------------------------------

Riff 3
Ven por favor, no me hagas esperar
Riff 4
aparte de todo esto, yo te quiero mostrar
Riff 3
vecinos orientales que confían en su ser
Riff 4
y mágicas personas que preguntan, quién es usted?


          D5     A5       E5
Un barrio chino te ofreceré
          D5    A5      E5
en donde nadie se tenga fe
        D5   A5        E5
donde todos canten en sol
          D5   A5           B5 (riff 4)
y sientan música en su interior

----------------------------------------------------------------------

Fin:
e----------------|  |----------------|  |-------------------|
B----------------|  |--9e--7---7/9---|  |-12e--10-9-10-(10)-|
G----------------|  |--------9-----6-|  |-------------------|
D----------------|x2|----------------|x2|-------------------|
A--7--5-4-5/7----|  |----------------|  |-------------------|
E--------------5-|  |----------------|  |-------------------|

 D5  A5          E5
e--------------------|
B--------------------|
G--------------------|
D-7---------------2--|
A-5--7-7----------2--|
E----5-5--(4)-(2)-0--|
         PM......

AGUANTE LDT B.B!
Suggest correction
Creating personal tab
Creating personal tab
You can edit any tab online and save it as your Personal.

You can edit, replace or remove any tab part or add personal notes – all changes will be seen only by you.

Personal tabs can be accessed anytime from any device, even offline.
Learn more »
Give kudos to tab author, rate the tab!
1 2 3 4 5
comments
print report bad tab
guest
Wanna post a correction for this tab? Suggest correction