Oops, an error
Loading. Please wait.

Betty Silicona bass

by Riff
122 views 1 this week
no commentswrite comment
1 2 3 4 5
3 more votes to show rating
add to favorites
×
Save as Personal and add changes to this tab that will be seen only by you. Learn more ›
×
You can save this tab as Personal to edit and correct it or add notes. All changes will be seen only by you. Learn more »
launch autoscroll
font size
0
reset
guitar tuner
edit
Autoscroll
slow
fast
+/-
esc
set tempo
stop
    ?Boris de la KGB?    ?ella es todo?        ?de un descuido?
G|-------------------------------------------------------------------
D|------------------------------------------------------------------- Parte
A|-----------------------0-0-0--0-0-0--0-0-0-?-----------------------   A
E|-0-0-0--0-0-0--0-0-0-?-----------------------0-0-0--0-0-0--0-0-0-?-

          (3 veces)
?Betty nacio para el amor?              ?para el amor final?
G|----------------------------|----------------------------
D|----------------------------|----------------------------  Parte
A|-5-2--2-2-2--2-2-2--2-2-2---|-5-2--2-2-2--2-2-2--5-5-5--5    B
E|----------------------------|----------------------------

Repite parte A, B. Despues:

G|----------------------------------------------------------
D|----------------------------------------------------------
A|----------------------------------------------------------
E|-0-0-0--0-0-0--0-0-0--0-0-0--0-0-0--0-0-0--0-0-0--0-0-0-?-

                  (2 veces)
G|---------------------------------------------|
D|---------------------------------------------|
A|-0-0-0--0-0-0--0-0-0-?-----------------------|
E|-----------------------0-0-0--0-0-0--0-0-0-?-|

Repite parte B,

G|---------------------------------------------------------
D|---------------------------------------------------------
A|---------------------------------------------------------
E|-0-0-0--0-0-0--0-0-0-?-0-0------0-0------0-0-----0-0-----

Repite parte A, B. Despues

G|-----------------------------------------------------------------------------
D|-----------------------------------------------------------------------------
A|-----------------------5--5--5--5--5--5--5--5--------------------------------
E|-0-0-0--0-0-0--0-0-0-?-------------------------0----------0--------0-------?-

Los puntos suspensivos(?)los puse para indicar que sigue sonando esa nota
hasta el proximo cambio.


Betty Silicona (Pappo - Michel)

Betty Silicona
ronda por la zona D,
mira el eco de sus pasos,
Boris de la KGB.

Ella es todo sensorama,
pero viste un microfilm,
de un descuido en otra cama,
del otro lado del Rin.

Betty nació para el amor,
para nada convencional;
Betty nació para el amor,
para el amor final.

Maquillada de champagne,
ya se olvidó de él;
ya máquina nuevos planes
en el Roxy Hotel.

Ella no puede hacerlo
sin su película de espías;
yo sólo quiero hacerla
esta noche mía.

Betty nació paro el amor,
para nada convencional;
Betty nació para el amor,
para el amor final.

Betty Silicona
ronda por la zona D,
mira el eco de sus pasos,
Boris de la KGB.

Ella es todo sensorama,
pero viste un microfilm,
de un descuido en otra cama,
del otro lado del Rin.

Betty nació para el amor,
para nada convencional;
Betty nació para el amor,
para el amor final.

Betty Silicona, Betty Silicona.


Mientras su musica se siga tocando y escuchando el carpo jamas morira,
vivira eternamente en la memoria de todos.
Suggest correction
Creating personal tab
Creating personal tab
You can edit any tab online and save it as your Personal.

You can edit, replace or remove any tab part or add personal notes – all changes will be seen only by you.

Personal tabs can be accessed anytime from any device, even offline.
Learn more »
Give kudos to tab author, rate the tab!
1 2 3 4 5
comments
print report bad tab
guest
Wanna post a correction for this tab? Suggest correction