Oops, an error
Loading. Please wait.

Bienvenida A Mi Lado Oscuro bass

by Riff
74 views 1 this week
no commentswrite comment
1 2 3 4 5
2 more votes to show rating
add to favorites
×
Save as Personal and add changes to this tab that will be seen only by you. Learn more ›
×
You can save this tab as Personal to edit and correct it or add notes. All changes will be seen only by you. Learn more »
launch autoscroll
font size
0
reset
guitar tuner
edit
Autoscroll
slow
fast
+/-
esc
set tempo
stop
                   (2 vueltas)
G|--------------------------------------------------|
D|--------------------------------------------------| Parte
A|-2--2-2-2-2--5--5-5-5-5---------------------------|   A
E|-------------------------1--1-1-1-1--2--2-2-2-2---|

                                                                       \
?Bienvenido a mi lado oscuro?         ?es muy difícil, salir,bienve-   |
G|-----------------------------------------------------------------    |
D|-----------------------------------------------------------------    |
A|-----------------------------------------------------------------    |
E|-0-0-0-0-0-0-0-0-0-0-0-0-0-0-0-0-0-0-0-0-0-0-0-0-0-0-0-0-0-0-0-0-    |
                                                                       |Parte
nido a mi lado?         ?no hay turismo en el lado oscuro?       gi-   |  B
G|-----------------------------------------------------------------    |
D|-----------------------------------------------------------------    |
A|-0-0-0-0-0-0-0-0-0-0-0-0-0-0-0-0---------------------------------    |
E|---------------------------------0-0-0-0-0-0-0-0-0-0-0-0-0-0-0-0-    |
                                                                       /

rando en la rotonda?          ?buscabas donde ir                cru-   \
G|-----------------------------------------------------------------    |
D|-----------------------------------------------------------------    |
A|-2-2-2-2-2-2-2-2-2-2-2-2-2-2-2-2---------------------------------    |
E|---------------------------------2-2-2-2-2-2-2-2-2-2-2-2-2-2-2-2-    |
                                                                       |
zaste los sentidos?           ? tomaste otro carril?         ?si es-   |
G|-----------------------------------------------------------------    |
D|-----------------------------------------------------------------    |
A|---------------------------------5-5-5-5-5-5-5-5-5-5-5-5-5-5-5-5-    |
E|-3-3-3-3-3-3-3-3-3-3-3-3-3-3-3-3---------------------------------    |
                                                                       |Parte
tas en el camino donde nadie ha ido, por el asfalto sin luz?   ?bus-   |  C
G|-----------------------------------------------------------------    |
D|-----------------------------------------------------------------    |
A|-----------------------------------------------------------------    |
E|-5-5-5-5-5-5-5-5-5-5-5-5-5-5-5-5-2-2-2-2-2-2-2-2-2-2-2-2-2-2-2-2-    |
                                                                       |
candole sentido donde no hay sentido?    ?pagas clavada un cruz?       |
G|-----------------------------------------------------------------    |
D|-----------------------------------------------------------------    |
A|-----------------------------------------------------------------    |
E|-3-3-3-3-3-3-3-3-5-5-5-5-5-5-5-5-7-7-7-7-7-7-7-7-7-7-7-7-7-7-7-7-    |
                                                                       /
Repite parte B, C y A. Despues:
Durante el solo repite parte B, C. Despues:
Repite parte B. Despues:

3:03
G|-----------------------------------------------------------------
D|-----------------------------------------------------------------
A|-2-2-2-2-2-2-2-2-2-2-2-2-2-2-2-2-2-2-2-2-2-2-2-2-2-2-2-2-2-2-2-2-
E|-----------------------------------------------------------------

(Final)
?Bienvenido a mi lado oscuro, bienvenido a mi lado oscuro, bienvenido?
G|-------------------------------------------------------------------
D|-------------------------------------------------------------------
A|-------------------------------------------------------------------
E|-0-0-0-0-0-0-0-0-0-0-0-0-0-0-0-0-0-0-0-0-0-0-0-0-0-0-0-0-0-0-0-0-?-


Bienvenida a mi lado oscuro (Pappo - Vitico - Michel - Boff)

Bienvenida a mi lado oscuro,
cómo llegaste hasta aquí;
una vez en el lado oscuro,
es muy difícil salir.

Bienvenida a mi lado oscuro,
al fin lograste venir;
no hay turismo en el lado oscuro,
y es imposible salir.

Girando en la rotonda de las sensaciones,
buscabas dónde ir;
cruzaste los sentidos con las emociones,
tomaste otro carril.

Si estás en el camino donde nadie ha ido,
por el asfalto sin luz;
buscándole sentido donde no hay sentido,
pagás clavada una cruz.

Bienvenida a mi lado oscuro,
cómo llegaste hasta aquí;
una vez en el lado oscuro,
es muy difícil salir.

Bienvenida a mi lado oscuro,
al fin lograste venir;
no hay turismo en el lado oscuro,
y es imposible salir.

Hablamos de la zona en dónde el sol no asoma,
en vano es gritar o correr;
si sola te metiste, ganaste o perdiste;
según como lo quieras ver.

Ahora te aconsejo: relájate puesto
que es mucho mejor que sufrir;
si entraste por la puerta es porque estaba abierta,
podrás gozar o gemir.

Bienvenida a mi lado oscuro,
no se cómo llegaste aquí;
una vez en el lado oscuro,
es muy difícil salir.

Bienvenida a mi lado oscuro,
al fin lograste venir;
no hay turismo en el lado oscuro,
y es imposible salir.

Bienvenida a mi lado oscuro,
bienvenida a mi lado oscuro,
bienvenida a mi lado oscuro,
bienvenida a mi lado...

Mientras su musica se siga tocando y escuchando el carpo jamas morira,
vivira eternamente en la memoria de todos.

            
            
Suggest correction
Creating personal tab
Creating personal tab
You can edit any tab online and save it as your Personal.

You can edit, replace or remove any tab part or add personal notes – all changes will be seen only by you.

Personal tabs can be accessed anytime from any device, even offline.
Learn more »
Give kudos to tab author, rate the tab!
1 2 3 4 5
comments
print report bad tab
guest
Wanna post a correction for this tab? Suggest correction