Oops, an error
Loading. Please wait.

Bienvenida A Mi Lado Oscuro tab

by Riff
553 views 3 this week
no commentswrite comment
1 2 3 4 5
2 more votes to show rating
add to favorites
×
Save as Personal and add changes to this tab that will be seen only by you. Learn more ›
×
You can save this tab as Personal to edit and correct it or add notes. All changes will be seen only by you. Learn more »
launch autoscroll
font size
0
reset
how to read this tab
guitar tuner
edit
Autoscroll
slow
fast
+/-
esc
set tempo
stop
intro

e------------/------------/--------------/-----------------
b------------/------------/--------------/-----------------
d------------/------------/--------------/-----------------
g------------/-0--3-0-3-0-/--3--6-3-6-3--/-4--4-3-2-1-0----
a-2--5-2-5-2-/------------/--------------/--------------4--
E------------/------------/--------------/-----------------

base 1                 base 2

 E:                     A:
   E------------------    E---------------
   B------------------    B---------------
   G------------------    G--2-2----------
   D--2-2-------------    D--2-2-----5-4--
   A--2-2------5-4----    A--0---3-4------
   E--0----3-4--------    E---------------

acordes 5ª

  B5  F5  G5  D5  A5
e-----------------------
b-----------------------
g--4-----------7---2----
d--4--4----5---7---2----
a--2--4----5---5---0----
E-----2----3------------


--------------------------------------------------------
intro

B1 E:
Bienvenida a mi lado oscuro,
Cómo llegaste hasta aquí;
Una vez en el lado oscuro,
Es muy difícil salir.

B2 A:
Bienvenida a mi lado oscuro,
Al fin lograste venir;
B1 E:
No hay turismo en el lado oscuro,
Y es imposible salir.

B5
Girando en la rotonda de las sensaciones,
F5
Buscabas dónde ir;
G5
Cruzaste los sentidos con las emociones,
D5
Tomaste otro carril.

A5
Si estás en el camino donde nadie ha ido,
F5
Por el asfalto sin luz;
G5                       A5
Buscándole sentido donde no hay sentido,
B5
Pagás clavada una cruz.

B1 E:
Bienvenida a mi lado oscuro,
Cómo llegaste hasta aquí;
Una vez en el lado oscuro,
Es muy difícil salir.

B2 A:
Bienvenida a mi lado oscuro,
Al fin lograste venir;
B1 E:
No hay turismo en el lado oscuro,
Y es imposible salir.

B5
Hablamos de la zona en dónde el sol no asoma,
F5
En vano es gritar o correr;
G5
Si sola te metiste, ganaste o perdiste;
D5
Según como lo quieras ver.

A5
Ahora te aconsejo: relájate puesto
F5
Que es mucho mejor que sufrir;
G5                          A5
Si entraste por la puerta es porque estaba abierta,
B5
Podrás gozar o gemir.

INTRO:X2
SOLO SOBRE: b1 e (x4) b2 a (x2) b1 e (x2) B5-F5-G5-D5
            A5-F5-G5-A5-B5
prometo portarme bien y sacarlo... :S


B1 E:
Bienvenida a mi lado oscuro,
Cómo llegaste hasta aquí;
Una vez en el lado oscuro,
Es muy difícil salir.

B2 A:
Bienvenida a mi lado oscuro,
Al fin lograste venir;
B1 E:
No hay turismo en el lado oscuro,
Y es imposible salir.

TODO SOBRE b1 e:
Bienvenida a mi lado oscuro,
Bienvenida a mi lado oscuro,
Bienvenida a mi lado oscuro,
Bienvenida a mi lado...

..y como dice neil young mientras se comia una lata de
pegamento en my my hey hey, cansion de la cual se
apodero la renga en el año 1816 y la toco en plena
independencia de argentina, he hizo q a peron se le
vuele la peluca!

 " el rey se ha muerto, pero no se ha olvidado"

pappo no murio... solo se fue a casa

            
            
Suggest correction
Creating personal tab
Creating personal tab
You can edit any tab online and save it as your Personal.

You can edit, replace or remove any tab part or add personal notes – all changes will be seen only by you.

Personal tabs can be accessed anytime from any device, even offline.
Learn more »
Give kudos to tab author, rate the tab!
1 2 3 4 5
comments
print report bad tab
guest
Wanna post a correction for this tab? Suggest correction