Oops, an error
Loading. Please wait.

Debo Seguir Buscando bass

by Riff
95 views 6 this week
no commentswrite comment
1 2 3 4 5
3 more votes to show rating
add to favorites
×
Save as Personal and add changes to this tab that will be seen only by you. Learn more ›
×
You can save this tab as Personal to edit and correct it or add notes. All changes will be seen only by you. Learn more »
launch autoscroll
font size
0
reset
guitar tuner
edit
Autoscroll
slow
fast
+/-
esc
set tempo
stop
G|-----------------------------------
D|-----------------------------------
A|-----------------------------------
E|-2-2-2-2-2-2-2-2-2-2-2-2-2-2-2-2-?-

          ?Ya hace mucho tiempo que?       ?quisiera encontrar?       \
G|------------------------------------------------------------------  |
D|------------------------------------------------------------------  |
A|-5-4-2--2-2-2-2-2-2-2-2-2-2-2-2-2-5-4-0--0-0-0-0-0-0-0-0-0-0-0-0-0  |
E|------------------------------------------------------------------  |
                                                                      | Parte
          ?algo distinto para mi?                                     |   A
G|---------------------------------------------------------------     |
D|---------------------------------------------------------------     |
A|-5-4---------------------------5-4-2--2-2-2-2-2-2-2-2-2-2-2-2-2     |
E|-----3--3-3-3-3-3-3-5--5-5-5-5---------------------------------     |
                                                                      /

Repite parte A. Despues:

        (4 veces)
?nada es nada
G|------------------------|
D|------------------------| Parte
A|-2--0--5------------5-4-|   B
E|----------3--3-3-5------|

    ?debo seguir?        ?buscando?
G|----------------------------------------------
D|----------------------------------------------
A|-2--2--0-2---5---0---2---2--0-2------------5-4
E|---------------------------------3--3-3-5-----

    ?debo seguir?        ?buscando?
G|------------------------------------------------------------
D|------------------------------------------------------------
A|-2--2--0-2---5---0---2---2--0-2------------5-4-2--2-2-2-2-?-
E|---------------------------------3--3-3-5-------------------

Repite parte A (2 veces), B. Despues:

    ?debo seguir?        ?buscando?
G|----------------------------------------------
D|----------------------------------------------
A|-2--2--0-2---5---0---2---2--0-2------------5-4
E|---------------------------------3--3-3-5-----

    ?debo seguir?        ?buscando?
G|-------------------------------------------
D|-------------------------------------------
A|-2--2--0-2---5---0---2---2--0-2------------
E|---------------------------------3--3-3-5--

Repite parte A (2 veces, B. Despues:

                  (2 veces)
G|----------------------------------------------|
D|----------------------------------------------|
A|-2--2--0-2---5---0---2---2--0-2------------5-4|
E|---------------------------------3--3-3-5-----|


G|------------------------------------|-----------------------------------
D|------------------------------------|-----------------------------------
A|-2------------0--5----------5--4--0-|-----------------------------------
E|-----------------------3------------|-2-2-2-2-2-2-2-2-2-2-2-2-2-2-2-2-?-

Repite parte A ( 2 veces), B. Despues:

                  (4 veces)
    ?debo seguir?        ?buscando?
G|----------------------------------------------|
D|----------------------------------------------|
A|-2--2--0-2---5---0---2---2--0-2------------5-4|
E|---------------------------------3--3-3-5-----|

          (7 veces)
      ?buscando?
G|---------------------------|-----------------
D|---------------------------|-----------------
A|-2-2--2--0-2------------5-4|-2-2--2--0-2-----
E|--------------3--3-3-5-----|-----------------

Atencion: La afinacion de este tema esta medio semitono mas grave que
la comun (La 440)


Debo seguir buscando (Pappo)

Ya hace mucho tiempo que,
quisiera encontrar;
algo distinto... para mí.

Enciendo candelabros pa...
...ra verte mejor;
y sólo veo... tu ficción.

Nada es nada,
nada es mejor,
nada se torna... superior.

Debo seguir buscando!
Debo seguir buscando!

Ya basta de complicación,
cansado estoy;
que me pregunten... donde voy.

Yo voy donde yo quiera ir,
quiero respirar;
un aire puro... bajo el sol.

Quiero verte,
un poco mejor,
y que te tornes... superior.

Debo seguir buscando!
Debo seguir buscando!

Mientras su musica se siga tocando y escuchando el carpo jamas morira,
vivira eternamente en la memoria de todos.

            
            
Suggest correction
Creating personal tab
Creating personal tab
You can edit any tab online and save it as your Personal.

You can edit, replace or remove any tab part or add personal notes – all changes will be seen only by you.

Personal tabs can be accessed anytime from any device, even offline.
Learn more »
Give kudos to tab author, rate the tab!
1 2 3 4 5
comments
print report bad tab
guest
Wanna post a correction for this tab? Suggest correction