Oops, an error
Loading. Please wait.

El Forastero bass

by Riff
91 views 3 this week
no commentswrite comment
1 2 3 4 5
3 more votes to show rating
add to favorites
×
Save as Personal and add changes to this tab that will be seen only by you. Learn more ›
×
You can save this tab as Personal to edit and correct it or add notes. All changes will be seen only by you. Learn more »
launch autoscroll
font size
0
reset
guitar tuner
edit
Autoscroll
slow
fast
+/-
esc
set tempo
stop
?¿Quien eres tu, forastero? le dijo la dueña?   ?soy nuevo en este lugar?
G|-----------------------------------------------------------------------
D|-----------------------------------------------------------------------
A|-----------------------------------3--3-3--3---3-3---------------------
E|-3--3-3--3---3-3--1--1-1--1---1-1-------------------3-3-3--3--3-3-3-3--

(en estas partes el bajo simpre toca Sol pero así para mi queda mejor)
G|-----------------------------------------------------
D|-----------------------------------------------------
A|-3-1---------1-3----------3-1---------1-3------------
E|------3--3-3------3--3-3-------3--3-3-----3--3-3-----
?Ella acepto la propuesta lo invito a su?        ?nuevamente le pregunto?
G|----------------------------------------------------------------------
D|----------------------------------------------------------------------
A|-----------------------------------3--3-3--3---3-3--------------------
E|-3--3-3--3---3-3--1--1-1--1---1-1-------------------3-3-3--3--3-3-3-3-
                            ?Quien eres tu forastero?
G|-------------------------------------------------
D|-------------------------------------------------
A|-3-1---------1-3----------3-1---------1-3--------
E|------3--3-3------3--3-3-------3--3-3-----3--3-3-
                            ?Quien eres tu forastero?
G|-----------------------------------------------------
D|-----------------------------------------------------
A|-3-1---------1-3----------3-1---------1-3------------
E|------3--3-3------3--3-3-------3--3-3-----3--3-3-----
                                            Mmmm!!
G|-------------------------------------------------
D|-------------------------------------------------
A|-------------------------------------------------
E|-0------------------------0----------------------
?Me busca la ley por motivos varios, he sido muy cuel estos ultimos años?
G|------------------------------------------------------------------------
D|------------------------------------------------------------------------
A|------------------------------------------------------------------------
E|------------------------------------------------------------------------
                     (2 veces)
G|-------------------------------------------------
D|-------------------------------------------------
A|-3-1---------1-3----------3-1---------1-3--------
E|------3--3-3------3--3-3-------3--3-3-----3--3-3-

G|----------------------------------------------------------------------
D|----------------------------------------------------------------------
A|-----------------------------------3--3-3--3---3-3--------------------
E|-3--3-3--3---3-3--1--1-1--1---1-1-------------------3-3-3--3--3-3-3-3-
?Hoy lo mira perderse, y jamas podra olvidar? ?el que mejor la supo amar?
G|----------------------------------------------------------------------
D|----------------------------------------------------------------------
A|-----------------------------------3--3-3--3---3-3--------------------
E|-3--3-3--3---3-3--1--1-1--1---1-1-------------------3-3-3--3--3-3-3-3-
                            ?Quien eres tu forastero?
G|-------------------------------------------------
D|-------------------------------------------------
A|-3-1---------1-3----------3-1---------1-3--------
E|------3--3-3------3--3-3-------3--3-3-----3--3-3-
                            ?Quien eres tu forastero?
G|-------------------------------------------------
D|-------------------------------------------------
A|-3-1---------1-3----------3-1---------1-3--------
E|------3--3-3------3--3-3-------3--3-3-----3--3-3-
                     (2 veces)
G|-------------------------------------------------
D|-------------------------------------------------
A|-3-1---------1-3----------3-1---------1-3--------
E|------3--3-3------3--3-3-------3--3-3-----3--3-3-

G|------------------------------------------------------------------------
D|------------------------------------------------------------------------
A|-3-1----------------------1-3----------------------3--------------------
E|-----------------------------------------------------3------------------

G|------------------------------------------------------------------------
D|------------------------------------------------------------------------
A|-3------------------------3-1----------------------1-3------------------
E|---3--------------------------------------------------------------------

G|-------------------------------------------------
D|-------------------------------------------------
A|-3-1---------1-3----------3-1---------1-3--------
E|------3--3-3------3--3-3-------3--3-3-----3--3-3-

G|--------------------------------------------------|
D|--------------------------------------------------|
A|-3-1---------1-3----------3-1---------3-----------|
E|------3--3-3------3--3-3-------3--3-3-----3-3-3-3-|

El forastero (Pappo - Vitico)

¿Quién eres tú, forastero?,
le dijo la dueña del bar;
¿Quién eres tú, forastero?,
soy nuevo en este lugar.

Ella aceptó la propuesta,
lo invitó a su habitación
y luego a hacer el amor,
nuevamente le preguntó:

¿Quién eres tú, forastero?,
¿Quién eres tú, forastero?

Me busca la ley
por motivos varios,
he sido muy cruel
estos últimos años.

Hoy lo mira perderse
y jamás podrá olvidar,
que fue aquel forastero
el que mejor la supo amar.

¿Quién eres tú, forastero?,
¿Quién eres tú forastero?

Mientras su musica se siga tocando y escuchando el carpo jamas morira,
vivira eternamente en la memoria de todos...
e-mail: zarathustra4321@

            
            
Suggest correction
Creating personal tab
Creating personal tab
You can edit any tab online and save it as your Personal.

You can edit, replace or remove any tab part or add personal notes – all changes will be seen only by you.

Personal tabs can be accessed anytime from any device, even offline.
Learn more »
Give kudos to tab author, rate the tab!
1 2 3 4 5
comments
print report bad tab
guest
Wanna post a correction for this tab? Suggest correction