Oops, an error
Loading. Please wait.

Es Tarde bass

by Riff
85 views 1 this week
no commentswrite comment
1 2 3 4 5
3 more votes to show rating
add to favorites
×
Save as Personal and add changes to this tab that will be seen only by you. Learn more ›
×
You can save this tab as Personal to edit and correct it or add notes. All changes will be seen only by you. Learn more »
launch autoscroll
font size
0
reset
guitar tuner
edit
Autoscroll
slow
fast
+/-
esc
set tempo
stop
Los puntos suspensivos los puse para que se sepa que esa misma nota se toca
hasta el proximo cambio.

                                 ?Es tarde para que te arre-
G|----------------------------------------------------------
D|----------------------------------------------------------
A|-0-0--0-0-0-0-0-0-0-0-0-0-0-0-0-0-0-0-0-0-0-0-0-0-0-0-0-?-
E|----------------------------------------------------------

pientas?                            ?es tarde para que te sientas?  \
G|----------------------------------------------------------------  |
D|----------------------------------------------------------------  |
A|-5-5-5-5-5-5-5-5-5-5-5-5-5-5-5-5-7-7-7-7-7-7-7-7-7-7-7-7-7-7-7-7  |
E|----------------------------------------------------------------  |
                                                                    |Parte
mal?                                  ?es tarde hasta para que lo?  |  A
G|---------------------------------------------------------------   |
D|---------------------------------------------------------------   |
A|-0-0-0-0-0-0-0-0-0-0-0-0-0-0-0-0-0-0-0-0-0-0-0-0-0-0-0-0-0-0-?-   |
E|---------------------------------------------------------------   |
                                                                    /
Repite parte A 10 veces mas. Despues:

2:20
?tarde?                       ?es tarde?
G|----------------------------------------------------------------
D|----------------------------------------------------------------
A|-5-5-5-5-5-5-5-5-5-5-5-5-5-5-5-5-7-7-7-7-7-7-7-7-7-7-7-7-7-7-7-7
E|----------------------------------------------------------------

Final
G|--------------------------------------
D|-----2--------------------------------
A|-0-0----5-5-3--3----------------------
E|----------------0-3-5-----------------

Es tarde (Boff-Pappo-Peyronel-Vitico)

Es tarde para que te arrepientas,
es tarde para que te sientas mal;
es tarde hasta para que me mientas,
es tarde porque no te quiero más.

Es muy tarde, cariño,
te dejo lo que quieras rescatar;
es muy tarde, cariño,
es tarde porque no te quiero más.

Es tarde para empezar de nuevo,
es tarde porque todo quedó atrás;
es tarde porque yo ya no te quiero,
mejor dejamos todo como está.

Es muy tarde, cariño,
te dejo lo que quieras rescatar;
es muy tarde, cariño,
es tarde porque no te quiero más.

Es tarde, es tarde, es tarde...

Es tarde, es tarde, es tarde...

Mientras su musica se siga tocando y escuchando el carpo jamas morira,
vivira eternamente en la memoria de todos
Suggest correction
Creating personal tab
Creating personal tab
You can edit any tab online and save it as your Personal.

You can edit, replace or remove any tab part or add personal notes – all changes will be seen only by you.

Personal tabs can be accessed anytime from any device, even offline.
Learn more »
Give kudos to tab author, rate the tab!
1 2 3 4 5
comments
print report bad tab
guest
Wanna post a correction for this tab? Suggest correction