Oops, an error
Loading. Please wait.

Hoy No Hago Nada bass

by Riff
41 views 1 this week
no commentswrite comment
1 2 3 4 5
3 more votes to show rating
add to favorites
×
Save as Personal and add changes to this tab that will be seen only by you. Learn more ›
×
You can save this tab as Personal to edit and correct it or add notes. All changes will be seen only by you. Learn more »
launch autoscroll
font size
0
reset
guitar tuner
edit
Autoscroll
slow
fast
+/-
esc
set tempo
stop
                   (9 veces)
G|--------------------------------------------------|
D|--------------------------------------------------| Parte
A|-0-0-0-0-0-0-0-0-0-0-0-0-0-0-0-0-?-----------0-5--|   A
E|-----------------------------------3-3-3-2--------|

?hoy no hago nada, me quedo como estoy?
G|-----------------------------------
D|----------------------------------- Parte
A|-----------------------------------   B
E|-0-0-0-0-0-0-0-0-0-0-0-0-0-0-0-0-?-

1:37
G|----------------------------------------------------------------  \
D|----------------------------------------------------------------  |
A|-2-2-2-2-2-2-2-2-2-2-2-2-2-2-2-2-2-2-2-2-2-2-2-2-2-2-2-2-2-?-0--  |
E|----------------------------------------------------------------  |
                                                                    | Parte
G|----------------------------------------------------------------  |   C
D|----------------------------------------------------------------  |
A|-5-5-5-5-5-5-5-5-5-5-5-5-5-5-5-5-0-0-0-0-0-0-0-0-0-0-0-0-0-0-0-0  |
E|----------------------------------------------------------------  /

Repite parte C. Despues:

G|---------------------------------
D|---------------------------------
A|-2-2-2-2-2-2-2-2-2-2-2-2-2-2-2-2-
E|---------------------------------

Repite parte A (4 veces), B, A (2 veces). Despues:

Final
G|------------------------------------
D|------------------------------------
A|----------0-5-----------0-5--0------
E|-3-3-3-2-------3-3-3-2--------------

Hoy no hago nada (Boff-Pappo-Peyronel-Vitico)

Quiero saber quién me respalda,
voy a tomar una decisión,
voy a cambiar desde mañana,
para ser otro mucho mejor,
mucho mejor, mucho mejor.

Me olvidaré de mis problemas,
y de mi propia satisfacción,
voy a dejar todas mis penas,
para ser otro mucho mejor,
mucho mejor, mucho mejor.

Hoy no hago nada, me quedo como estoy,
dejo para mañana lo que puedo hacer hoy;
sólo un día más que voy a agregar,
a todos aquellos que quedaron atrás.

Otro día más que ha pasado,
y no he hecho nada para ser mejor,
sigo esperando hasta mañana,
y tal vez un día todo sea mejor,
mucho mejor, algo mejor.

Hoy no hago nada, me quedo como estoy,
dejo para mañana lo que puedo hacer hoy;
sólo un día más que voy a agregar,
a todos aquellos que quedaron atrás.

Mientras su musica se siga tocando y escuchando el carpo jamas morira,
vivira eternamente en la memoria de todos.

            
            
Suggest correction
Creating personal tab
Creating personal tab
You can edit any tab online and save it as your Personal.

You can edit, replace or remove any tab part or add personal notes – all changes will be seen only by you.

Personal tabs can be accessed anytime from any device, even offline.
Learn more »
Give kudos to tab author, rate the tab!
1 2 3 4 5
comments
print report bad tab
guest
Wanna post a correction for this tab? Suggest correction