Oops, an error
Loading. Please wait.

Juegos Nocturnos tab

version 1
version 1

Whole song

by Riff
40 views 1 this week
no commentswrite comment
1 2 3 4 5
3 more votes to show rating
add to favorites
×
Save as Personal and add changes to this tab that will be seen only by you. Learn more ›
×
You can save this tab as Personal to edit and correct it or add notes. All changes will be seen only by you. Learn more »
launch autoscroll
font size
0
reset
how to read this tab
guitar tuner
edit
Autoscroll
slow
fast
+/-
esc
set tempo
stop
Les debo el solo y algunos riff de la ultima parte, ya que los quise
sacar pero con la criolla se me complico!!!
Hice un poco de lio con los Riff, pero con paciencia y escuchando
la cacion la van a sacar

Intro: Riff 1 (x2) con punteo intro

Riff 1:

     Am9      Am    Am9      Am       Am9      Am       Am4   Am
E----------------/----------------/---------------------------------
B------0-------1-/------0-------1-/------0-------1-------3-------3h5
G----------------/----------------/---------------------------------
D----2-------2---/----2-------2---/----2-------2-------2-------2----
A-0-------0------/-0-------0------/-0-------0-------0-------0-------
E----------------/----------------/---------------------------------

Punteo intro:

E--7h8-7---3h5-3--------3---/-14h15-12---8h10-8-----------/---------
B-----------------3h5-3---5-/--------------------10h12-10-/-10-13-12
G---------------------------/-----------------------------/---------
D---------------------------/-----------------------------/---------
A---------------------------/-----------------------------/---------
E---------------------------/-----------------------------/---------

Riff 2:

Dm7   Dm7/4 Dm7 Dm7/9 Dm7  Am9     Am        Am4     Am
e-1-----3----1----0----1-/---------------------------------
B-1-----1----1----1----1-/------0-------1-------3-------3h5
G-2----------------------/---------------------------------
D-0-----0----0----0----0-/----2-------2-------2-------2----
A------------------------/-0-------0-------0-------0-------
E------------------------/---------------------------------

Punteo 1:

e-------------------------
B-5h6--5--6--8--6--5--6-5-
G-------------------------
D-------------------------
A-------------------------
E-------------------------

Punteo 2:
e---------------5--7--8-7-
B-5h6--5--6--8------------
G-------------------------
D-------------------------
A-------------------------
E-------------------------


Riff 1
Encuentros en la oscuridad
Riff 1
Comienza la aventura
Riff 2 con punteo 1
Noche sin luna, pero se que estas
Riff 2 Con punteo 2
Como ninguna, ninguna!!!

No temas esto va a empezar
No hay reglas, ni salida
Juegos al borde de la realidad
Juegos nocturnos, nocturnos!!!!

Riff 1 (x2)

Estribillo:
G5                  F5       C5-A5   B5-C5--A5
En el sueño de un sueño te encontrare
G5        F5            C5
Y tu pesadilla será la mía
G5                  F5      C5-A5   B5-C5--A5
En el sueño de un sueño te tomare
G5        F5
Y te tomare

Punteo 4             Punteo 5
e-----------------/-----------/-
B--5--6--6h8--6---/-----------/-
G---------------5-/-5h7--5--2-/-
D-----------------/-----------/-
A-----------------/-----------/-
E-----------------/-----------/-

Punteo 6:
e---------------5--7h8--8h10--10h12--12h15--17----19----17------------
B-5h6--5--6--8---------------------------------17----17----17-15-13-12
G---------------------------------------------------------------------
D---------------------------------------------------------------------
A---------------------------------------------------------------------
E---------------------------------------------------------------------

                           Punteo 4
Viajemos por la oscuridad
   Punteo 5
con ritmo de locura
Riff 2 con punteo 1
Juegos del mundo de las sombras
Riff 2 con punteo 6
Juegos nocturnos, nocturnos

Solo:  G5  F5 C5 Am5 C5 Am5

Estribillo:
En el sueño de un sueño te encontrare
Y tu pesadilla será la mía
En el sueño de un sueño te tomare
G5      F5             C5
Y te tomare?. Hasta el día.

F5             Am5
Uh, juegos Nocturnos
Uh, juegos Nocturnos

En el sueño de un sueño te encontrare
Y tu pesadilla será la mía
En el sueño de un sueño te tomare
Y te tomar hasta el día.

Final:
Riff 1 (x2)

AGUANTE PAPPO Y LA DEL TERMO BAHIA BLANCA

            
            
Suggest correction
Creating personal tab
Creating personal tab
You can edit any tab online and save it as your Personal.

You can edit, replace or remove any tab part or add personal notes – all changes will be seen only by you.

Personal tabs can be accessed anytime from any device, even offline.
Learn more »
Give kudos to tab author, rate the tab!
1 2 3 4 5
comments
print report bad tab
guest
Wanna post a correction for this tab? Suggest correction