Oops, an error
Loading. Please wait.

Lo Tuyo Es Vicio bass

by Riff
19 views 1 this week
no commentswrite comment
1 2 3 4 5
3 more votes to show rating
add to favorites
×
Save as Personal and add changes to this tab that will be seen only by you. Learn more ›
×
You can save this tab as Personal to edit and correct it or add notes. All changes will be seen only by you. Learn more »
launch autoscroll
font size
0
reset
guitar tuner
edit
Autoscroll
slow
fast
+/-
esc
set tempo
stop
   (12 veces)
?Tiene vocacion? ?este chico no quiere mas?
G|------------|------------------------------------------------
D|------------|------------------------------------------------
A|-------2----|-0--0--0--0--0--0--0--0--0--0--0--0--0--0--0--0-
E|-0--3-----3-|------------------------------------------------

   (4 veces)                                                      \
?y aunque sea? ?ninfo Nancy no puede ser, ella solo piensa en?    |
G|------------|-------------------4---------------4-4------4-     |
D|------------|----------------4-----4-----------------------     |
A|-------2----|-2--2--2--2--2-----------2--2--2---------2----     |
E|-0--3-----3-|----------------------------------------------     |
                                                                  | Parte
   (2 veces)                                                      |   A
?vez y otra?                                                      |
G|------------|----------------------                             |
D|------------|----------------------                             |
A|-------2----|-------2-----2--------                             |
E|-0--3-----3-|-0--3-----3-----------                             |
                                                                  /

?vicio, lo tuyo es vicio?   (2 veces)
G|------------------------|------------|
D|------------------------|------------| Parte
A|-0--0--0--0--0--0--0--0-|-------2----|   B
E|------------------------|-0--3-----3-|

Repite parte B. Despues:

   (8 veces)
?es la criatura? ?ella es agresiva y de buen andar?
G|------------|------------------------------------------------
D|------------|----------------------- ------------------------- Parte
A|-------2----|-0--0--0--0--0--0--0--0--0--0--0--0--0--0--0--0-   C
E|-0--3-----3-|------------------------------------------------

Repite parte A, B (4 veces), C, A, B (4 veces). Despues:

Final
       ?vicio, es vicio no mas?
G|-----------------------------------------------------------------
D|-----------------------------------------------------------------
A|-0--0--0--0--0---0-4--0-4-7--------------------------------------
E|--------------------------------------0--------------------------

Lo tuyo es vicio (Peyronel-Vitico)

Tiene vocación para la acción
y ni un centímetro de compasión
este chico no quiere mas
creo que se ha ganado su libertad
Ninfo Nancy no puede ser
ella solo piensa en volverlo a hacer
una vez, otra vez y otra vez

Vicio, lo tuyo es vicio
vicio es vicio no mas

Es la criatura del rock'n'roll
y no conoce la palabra no
ella es agresiva y de buen andar
siempre esta vestida para matar
Ninfo Nancy es todo calor
y ella es obsesiva con el amor
No quisieras hacerle el favor?

Vicio, lo tuyo es vicio
vicio es vicio no mas.

Mientras su musica se siga tocando y escuchando el carpo jamas morira,
vivira eternamente en la memoria de todos.

            
            
Suggest correction
Creating personal tab
Creating personal tab
You can edit any tab online and save it as your Personal.

You can edit, replace or remove any tab part or add personal notes – all changes will be seen only by you.

Personal tabs can be accessed anytime from any device, even offline.
Learn more »
Give kudos to tab author, rate the tab!
1 2 3 4 5
comments
print report bad tab
guest
Wanna post a correction for this tab? Suggest correction