Oops, an error
Loading. Please wait.

Macadam Tres, Dos, Uno, Cero tab

version 3
version 3

Whole song

by Riff
63 views 1 this week
no commentswrite comment
1 2 3 4 5
3 more votes to show rating
add to favorites
×
Save as Personal and add changes to this tab that will be seen only by you. Learn more ›
×
You can save this tab as Personal to edit and correct it or add notes. All changes will be seen only by you. Learn more »
launch autoscroll
font size
0
reset
how to read this tab
guitar tuner
edit
Autoscroll
slow
fast
+/-
esc
set tempo
stop
Creo que esta perfecta!!! Fijense que es un poco de quilombo
por la cantidad de riff que se repiten!!! Les aconsejo escucharla
mientras la practican, se les van a simplificar un monton de
dudas

Intro: Riff 1 (x4) Con A5

Riff 1:
  A5
e-------------/-------------/----------------------------
B-------------/-------------/----------------------------
G-------------/-------------/-----------2--4--5--4--2----
D-2---------2-/-2---------2-/-2---------2--4--5--4--2--2-
A-0--0h3h4--0-/-0--0h3h4--0-/-0--0h3h4-----------------0-
E-------------/-------------/----------------------------

Riff 2
  D5
e------------------------------
B------------------------------
G-2--2-2--4-2-4-2-4-2----------
D-0--0-0--0-0-0-0-0-0-0h3h4--2-
A----------------------------0-
E------------------------------

Riff 1 (x1)
Nadando en una ciénaga de macadam,
Riff 1 (x1)
no quiero estar tranquilo ni quiero paz,
Riff 2 (x1)
ideas a mi mente sacudirán bang bang...
Riff 1 (x1)
  Oh, oh, oh

   Riff 3         Riff 4
e--------------/----------/
B--------------/----------/
G--------------/-------2v-/
D-2-1-0--------/-------2v-/
A-------3h4--0-/-0h3h4----/
E--------------/----------/

Riff 3               Riff 4
Tres, dos, uno, cero
Riff 3               Riff 4
Tres, dos, uno, cero
Riff 3
Tres, dos, uno, cero

Intermedio 1: Riff 1 (x2)

Riff 1 (x1)
No se bien lo que quiero pero quiero más,
Riff 1 (x1)
no se bien lo que vimos pero vimos más,
Riff 2 (x1)
metales importantes nos reflejarán bang bang...
Riff 1 (x1)
Oh, oh, oh

Riff 3               Riff 4
Tres, dos, uno, cero
Riff 3               Riff 4
Tres, dos, uno, cero
Riff 3
Tres, dos, uno, cero

Solo:
     C#5-B5-E5
     C#5-B5-A5
     C#5-B5
     C#5-B5
     C#5-B5-E5
     Riff 5 (x3)
     A5-E5
     A5-E5
     Riff 1 (x2)

Riff 5
 E               E5
e--------------/---/
B--------------/---/
G--------------/---/
D--------------/-2-/
A-2-1-0--------/-2-/
E-------3h4--0-/-0-/

Riff 1 (x1)
Nadando en una ciénaga de macadam,
Riff 1 (x1)
no quiero estar tranquilo ni quiero paz,
Riff 2 (x1)
ideas a mi mente sacudirán bang bang...
Riff 1 (x1)
  Oh, oh, oh

Riff 3               Riff 4
Tres, dos, uno, cero
Riff 3               Riff 4
Tres, dos, uno, cero
Riff 3
Tres, dos, uno, cero

C#5            B5          E5
Ya no hay U.R.S.S. ni U.S.A.,
C#5            B5          A5
sólo hay ángeles sucios por acá,
C#5            B5        C#5            B5
ya no miro hacia atrás para ver dónde estás,
 C#5            B5               E5
qué me importa saber si soy uno más.

Intermedio 2:
E5 (x8)
Riff 5 (x3)
Riff 6

Riff 6:
  E
e---------/---------/-------------/
B---------/---------/-------------/
G---------/---------/-------------/
D---------/---------/-------------/
A-2-1-0---/-2-1-0---/-2-1-0-------/
E-------3-/-------3-/------3h4-0--/

Final:

Riff 1
Oh, oh, oh...
Riff 1
Oh, oh, oh...
Riff 1
Oh, oh, oh...
Riff 1         A5
Oh, oh, oh...

Aguante el carpo y la del termo BB!!! Aguante el tio!!!

            
            
Suggest correction
Creating personal tab
Creating personal tab
You can edit any tab online and save it as your Personal.

You can edit, replace or remove any tab part or add personal notes – all changes will be seen only by you.

Personal tabs can be accessed anytime from any device, even offline.
Learn more »
Give kudos to tab author, rate the tab!
1 2 3 4 5
comments
print report bad tab
guest
Wanna post a correction for this tab? Suggest correction