Oops, an error
Loading. Please wait.

No Detengas Tu Motor bass

by Riff
64 views 1 this week
no commentswrite comment
1 2 3 4 5
3 more votes to show rating
add to favorites
×
Save as Personal and add changes to this tab that will be seen only by you. Learn more ›
×
You can save this tab as Personal to edit and correct it or add notes. All changes will be seen only by you. Learn more »
launch autoscroll
font size
0
reset
guitar tuner
edit
Autoscroll
slow
fast
+/-
esc
set tempo
stop
           (2 vueltas)                                   \
G|---------------------------------|                     |
D|-5-5---7-----7-------------------|                     |
A|-----5---5-5---0-0-0-0-0-0-0-0-0-|                     |
E|---------------------------------|                     |Parte
                                                         |  A
G|-----------------------------------------------------  |
D|-5-5---7-----7---------------------------------------  |
A|-----5---5-5---0-3-2-1-0--0-0-0-0-0-0-0-0-0-0-0-0-0-0  |
E|-----------------------------------------------------  |
                                                         /

      ?No detenga su motor?                     ?e investigue su?        \
G|---------------------------------------------------------------------  |
D|--------------------------------------------------------3--3-3-5--5-5  |
A|-3------5---0--0-0-0-0-0-0-0-0-0-0-0-0-0-0-0--3----------------------  |
E|---------------------------------------------------------------------  |
                                    ?si el mundo da?  ?y nosotros?       |
G|--------------------------------------------------------------------   |
D|-7--7-7-7-7-7-7-7-7-7-7-7-7-7-7-------------------------------------   |Parte
A|---------------------------------3------0--0-0-0-0-3------0--0-0-0-0   |  B
E|--------------------------------------------------------------------   |
                                                                         |
?para que?    ?de su ser?                                                |
G|---------------------------------------------------------------------- |
D|-------5--5-5-5-5----------------------------------------------------- |
A|3-------------------5-5-5-5-5-5-5--3-2-1-0--0-0-0-0-0-0-0-0-0-0-0-0-0- |
E|---------------------------------------------------------------------- |
                                                                         /
Repite parte B. Despues:

      ?no detenga su motor?
G|--------------------------------------------
D|-------------------------------------------- Parte C
A|-3------5---0--0-0-0-0-0-0-0-0-0-0-0-0-0-0-0
E|--------------------------------------------

Repite parte A. Despues:
Durante el solo de guitarra repite parte B. Despues
Repite parte B (2 vueltas), parte C. Despues:

Final
G|---------------------------------------------------------------
D|-5-5-5------------------------5-5-5----------------------------
A|--------5-5-5--0-0-0-0-0-0-0---------5-5-5--3-2-1-0------------
E|---------------------------------------------------------------

G|-----------------------------------------
D|-5-5-5-----------------------------------
A|--------5-5-5--3-2-1-0-------------------
E|-----------------------------------------


No detenga su motor (Riff)

No detenga su motor
e investigue su interior
si el mundo da vueltas
y nosotros tambien
para que separarse de su ser
Separarse de su ser
irse muy lejos tal vez
por eso le ruego
que se haga un favor
que nunca detenga su motor
No detenga su motor...

            
            
Suggest correction
Creating personal tab
Creating personal tab
You can edit any tab online and save it as your Personal.

You can edit, replace or remove any tab part or add personal notes – all changes will be seen only by you.

Personal tabs can be accessed anytime from any device, even offline.
Learn more »
Give kudos to tab author, rate the tab!
1 2 3 4 5
comments
print report bad tab
guest
Wanna post a correction for this tab? Suggest correction