Oops, an error
Loading. Please wait.

No Detengas Tu Motor tab

version 2
version 2

Whole song

by Riff
82 views 3 this week
no commentswrite comment
1 2 3 4 5
3 more votes to show rating
add to favorites
×
Save as Personal and add changes to this tab that will be seen only by you. Learn more ›
×
You can save this tab as Personal to edit and correct it or add notes. All changes will be seen only by you. Learn more »
launch autoscroll
font size
0
reset
how to read this tab
guitar tuner
edit
Autoscroll
slow
fast
+/-
esc
set tempo
stop
Intro: Riff 1

Riff 1:
  D5     A5          D5     A5              D5      A5
e--------------5-5-/---------------5--5----/-------------------------
B--------------5-5-/---------------5--5----/-------------------------
G-7-7-9------------/-7-7-9----------6e--6e-/-7-7-9---------5-4-3-(2)-
D-7-7-7--7-7-9-----/-7-7-7--7-7-9----------/-7-7-7--7-7-9---------2--
A--------7-7-7-----/--------7-7-7----------/--------7-7-7------------
E------------------/-----------------------/-------------------------

  A5
e--------------/
B--------------/
G-----2--5-4-2-/
D-----2--5-4-2-/
A-3h4----------/
E--------------/

Riff 2:

  C5  D5  A5
e-------------------------/
B-------------------------/
G--5---7---2-----2--5-4-2-/
D--5---7---2-----2--5-4-2-/
A--3---5-----3h4----------/
E-------------------------/

Riff 3:
   C5   F5   G5         A5
e-----------------------------------------/
B-----------------------------------------/
G--5--------------------2-----2--5-4-2-2--/
D--5------3------3h5----2-----2--5-4-2-2--/
A--3----3------3h5--------3h4-------------/
E-----1-----1h3---------------------------/

Riif 4:
    C5  A5      C5  A5        C5  G5      D5           A5
e----------/------------/--------------------------------/--------------/
B----------/------------/--------------------------------/--------------/
G---5--2-2-/-----5--2-2-/-----5----------2-4-4--5-4-3-(2)/-----2--5-4-2-/
D---5--2-2-/-----5--2-2-/-----5----------0-0-0---------2-/-----2--5-4-2-/
A-0-3--0-0-/-0-2-3--0-0-/-0-2-3--5-7-5-7-----------------/-3h4----------/
E----------/------------/--------3-3-3-3-----------------/--------------/

Riff 2
No detenga su motor
Riff 3
e investigue su interior
Riff 4
si el mundo da vueltas
y nosotros también
para que separarse de su ser

Separarse de su ser
irse muy lejos tal vez
por eso le ruego
hacerse un favor
nunca detenga su motor

Riff 2:
No detenga su motor

Inter

Riff 5:
e--------------5-5-/---------------5--5----/-------------------------
B--------------5-5-/---------------5--5----/-------------------------
G-7-7-9------------/-7-7-9----------6e--6e-/-7-7-9---------5-4-3-(2)-
D-7-7-7--7-7-9-----/-7-7-7--7-7-9----------/-7-7-7--7-7-9---------2--
A--------7-7-7-----/--------7-7-7----------/--------7-7-7---------0--
E------------------/-----------------------/-------------------------

Solo:

    C5       D5                     A5         C5        F5 G5   A5
e-----8-------10-8-------------------------/--------------------------/
B------------------10-8-10--10h8---8-------/--------------------------/
G-5h9--9--9h11-------------------9---9--(5)/-5-5h9--9-7---------------/
D------------------------------------------/-----------10--------10-7-/
A------------------------------------------/-------------10--7h10-----/
E------------------------------------------/--------------------------/

                      C5          A5              C5         A5
e-----------------/--------------------------/----------------------/
B-----------------/-----8-10h8---------------/-----8-10h8-----------/
G-----------------/-5h9--------9-7h9h7-------/-5h9--------9-7h9h7---/
D-7-7-7-7-10-9-7--/--------------------10-7-7/--------------------7-/
A-----------------/--------------------------/----------------------/
E-----------------/--------------------------/----------------------/

     C5             G5                   D5            A5
e----------------------/----------10h12-10-/----------(12)-/----------/
B-----8-10h8-----------/-10h12-10----------/-13-12-11------/-10e--10e-/
G-5h9--------9-7h9---7-/-------------------/---------------/--9e---9e-/
D------------------9---/-------------------/---------------/----------/
A----------------------/-------------------/---------------/----------/
E----------------------/-------------------/---------------/----------/


No detenga su motor
investigue su interior
el mundo da vueltas
nosotros también
para que separarse de su ser

Separarse de su ser
Irse muy lejos tal vez
por eso le ruego
hacerse un favor
nunca detenga su motor

No detenga su motor

Fin:
e-------------------------
B-------------------------
G-7-7-9---------5-4-3-(2)-
D-7-7-7--7-7-9---------2--
A--------7-7-7---------0--
E-------------------------

AGUANTE PAPPO Y LA DEL TERMO BAHIA BLANCA CARAJO!!!

            
            
Suggest correction
Creating personal tab
Creating personal tab
You can edit any tab online and save it as your Personal.

You can edit, replace or remove any tab part or add personal notes – all changes will be seen only by you.

Personal tabs can be accessed anytime from any device, even offline.
Learn more »
Give kudos to tab author, rate the tab!
1 2 3 4 5
comments
print report bad tab
guest
Wanna post a correction for this tab? Suggest correction