Oops, an error
Loading. Please wait.

No Me Fue Muy Bien En El Extranjero bass

by Riff
22 views 1 this week
no commentswrite comment
1 2 3 4 5
3 more votes to show rating
add to favorites
×
Save as Personal and add changes to this tab that will be seen only by you. Learn more ›
×
You can save this tab as Personal to edit and correct it or add notes. All changes will be seen only by you. Learn more »
launch autoscroll
font size
0
reset
guitar tuner
edit
Autoscroll
slow
fast
+/-
esc
set tempo
stop
G|-------------------------------------------
D|-------------------------------------------
A|-2--2-2--2-2--2-2--2-2--2-2--2-2--2-2--2-?-
E|-------------------------------------------

?me dijeron que me fuera y yo me fui sin querer?
G|----------------------------------------
D|----------------------------------------
A|----------------------------------------
E|-0--0-0--0-0--0-0--0-0--0-0--0-0--0-0--0

?sin querer que ellos supieran lo que no iban ?
G|----------------------------------------
D|----------------------------------------
A|-2--2-2--2-2--2-2--2-2--2-2--2-2--2-2--2
E|----------------------------------------

?sincero, no me fue muy bien, en el?
G|----------------------------------------
D|----------------------------------------
A|----------------------------------------
E|-2--2-2--2-2--2-2--2-0--0-0--0-0--0-0--0

Repite todo lo de arriba 7 veces. Despues:

?sincero, no me fue muy bien, en el extran-  \
G|----------------------------------------   |
D|----------------------------------------   |
A|----------------------------------------   |
E|-2--2-2--2-2--2-2--2-0--0-0--0-0--0-0--0   | Parte
                                             |   A
jero?                           ?debo ser?   |
G|----------------------------------------   |
D|----------------------------------------   |
A|-2--2-2--2-2--2-2--2-2--2-2--2-2--2-2--2   |
E|----------------------------------------   /

Repite parte A. Despues:

Final
G|-----------------------------------------------------------------------------
D|-----------------------------------------------------------------------------
A|-----------------------------------------2--------2---0----------------------
E|-2--2-2--2-2--2-2--2-0--0-0--0-0--0-0--0-------------------------------------

No me fue muy bien en extranjero (Vitico)

Ha pasado mucho tiempo y tengo ganas de volver,
a un lugar que yo conozco y que me falta conocer;
me dijeron que me fuera y yo me fui sin querer,
sin querer que ellos supieran lo que no iban a entender.

Debo ser sincero,
no me fue muy bien en el extranjero.

Siempre se cruzaban ante mi dos caminos,
pasé tiempo sin saber cual iba a ser mi destino;
tardé mucho en darme cuento de que no eran para mí,
esa suerte y esa forma de manera de vivir.

Debo ser sincero,
no me fue muy bien en el extranjero.

Cada vez que tengo tiempo yo me vuelvo a acordar,
de lo bueno y de lo malo que tenía ese lugar,
me dijeron que me fuera y yo me fui sin querer,
sin querer que ellos supieran lo que no iban a entender.

Debo ser sincero,
no me fue muy bien en el extranjero.
Debo ser sincero,
no me fue muy bien en el extranjero.

Mientras su musica se siga tocando y escuchando el carpo jamas morira,
vivira eternamente en la memoria de todos.

            
            
Suggest correction
Creating personal tab
Creating personal tab
You can edit any tab online and save it as your Personal.

You can edit, replace or remove any tab part or add personal notes – all changes will be seen only by you.

Personal tabs can be accessed anytime from any device, even offline.
Learn more »
Give kudos to tab author, rate the tab!
1 2 3 4 5
comments
print report bad tab
guest
Wanna post a correction for this tab? Suggest correction