Oops, an error
Loading. Please wait.

Ojo Animal bass

by Riff
110 views 1 this week
no commentswrite comment
1 2 3 4 5
3 more votes to show rating
add to favorites
×
Save as Personal and add changes to this tab that will be seen only by you. Learn more ›
×
You can save this tab as Personal to edit and correct it or add notes. All changes will be seen only by you. Learn more »
launch autoscroll
font size
0
reset
guitar tuner
edit
Autoscroll
slow
fast
+/-
esc
set tempo
stop
Este es un tema no muy conocido de Riff, de la época en que JAF y Oscar
Moro estaban en la banda. Esta transcripto de su disco en vivo que además
de este temazo contiene joyas como ?La espada sagrada? y ?Dios devorador?.
Es bastante facil de tocar en el bajo.

(despues de la intro de guitarra viene esto)

0:32              (2 veces)
G|--------------------------------------------|
D|--------------------------------------------|
A|-3----5----7--------3----5----7-------------|
E|------------------------------0-------------|
                      (2 veces)
G|-----------------------------------------------------|
D|-----------------------------------------------------|
A|-7--7--7--7---5---7--------7--7--7--7---3---5--------|
E|-----------------------------------------------------|
 ?Esperando estas?          ?una noche mas?
G|----------------------------------------------------
D|----------------------------------------------------
A|-7----7--7----7----7--7----3----3--3----3----3--3---
E|----------------------------------------------------
?recibir tu victima fatal?
G|----------------------------------------------------
D|----------------------------------------------------
A|-5----5--5----5----5--5----7----7--7----7----7--7---
E|----------------------------------------------------
?Hay una especie de?      ?tremenda facultad?
G|----------------------------------------------------
D|----------------------------------------------------
A|-7----7--7----7----7--7----3----3--3----3----3--3---
E|----------------------------------------------------
?dentro de tu ojo animal?                       ?ojo?
G|----------------------------------------------------
D|----------------------------------------------------
A|-5----5--5----5----5--5----7----7--7----7-7----7-7-7
E|----------------------------------------------------
?animal?            ?nunca su secreto    contara
G|---------------------------------------------
D|---------------------------------------------
A|-7------5---3------3-3--3--3----5-5----7---5-
E|---------------------------------------------
                    ?nunca su secreto??
G|---------------------------------------------
D|---------------------------------------------
A|-7------5---3------3-3--3--3----5-5--5--5----
E|---------------------------------------------
?No habla mas, no rie mas, tomo su posicion
G|----------------------------------------------------
D|----------------------------------------------------
A|-7----7--7----7----7--7----3----3--3----3----3--3---
E|----------------------------------------------------
?En horas de la luna alguien va?
G|----------------------------------------------------
D|----------------------------------------------------
A|-5----5--5----5----5--5----7----7--7----7-7-7-7-7-7-
E|----------------------------------------------------
?Al recibir su conclusión y al dejar de existir?
G|----------------------------------------------------
D|----------------------------------------------------
A|-7----7--7----7----7--7----3----3--3----3----3--3---
E|----------------------------------------------------
?la piel de los demonios va a ocupar?         ?ojo?
G|----------------------------------------------------
D|----------------------------------------------------
A|-5----5--5----5----5--5----7----7--7----7-7----7-7-7
E|----------------------------------------------------
?animal?            ?nunca su secreto    contara
G|---------------------------------------------
D|---------------------------------------------
A|-7------5---3------3-3--3--3----5-5----7---5-
E|---------------------------------------------
                   ?nunca su secreto??
G|---------------------------------------------
D|---------------------------------------------
A|-7------5---3------3-3--3--3----5-5--5--5----
E|---------------------------------------------
(empieza el solo de guitarra)
G|----------------------------------------------------
D|----------------------------------------------------
A|-7-7--7--7----7-7--7--7----3----3--3----3-3--3--3---
E|----------------------------------------------------

G|----------------------------------------------------
D|----------------------------------------------------
A|-5----5--5----5----5--5----7----7--7----7-----------

G|----------------------------------------------------
D|----------------------------------------------------
A|-7----7--7----7----7--7----3----3--3----3----3--3---
E|----------------------------------------------------

G|----------------------------------------------------
D|----------------------------------------------------
A|-5----5--5----5----5--5----7----7--7----7-------7---
E|----------------------------------------------------

G|---------------------------------------------
D|---------------------------------------------
A|-7------5---3------3-3--3--3----5---5----7-7-
E|---------------------------------------------

G|---------------------------------------------
D|---------------------------------------------
A|-7------5---3------3-3--3--3----5----5--5----
E|---------------------------------------------
?Veo pasar al animal con tanta frialdad?
G|----------------------------------------------------
D|----------------------------------------------------
A|-7----7--7--7-7----7--7----3----3--3----3----3--3---
E|----------------------------------------------------
?las trampas de aquel hipnotizador?
G|----------------------------------------------------
D|----------------------------------------------------
A|-5----5--5----5----5--5----7----7--7--7-7-7-7-7-7-7-
E|----------------------------------------------------
?un resplandor hoy puedo ver, ya amanecio?
G|----------------------------------------------------
D|----------------------------------------------------
A|-7----7--7----7----7--7----3----3--3----3----3--3---
E|----------------------------------------------------
?su huella en la tiniebla hoy se vio?           ?ojo?
G|----------------------------------------------------
D|----------------------------------------------------
A|-5----5--5----5----5--5----7----7-7-7-7-7-7----7-7-7
E|----------------------------------------------------
?animal?            ?nunca su secreto    contara
G|---------------------------------------------
D|---------------------------------------------
A|-7------5---3------3-3--3--3----5-5----7---5-
E|---------------------------------------------
                   ?nunca su secreto?
G|---------------------------------------------
D|---------------------------------------------
A|-7------5---3------3-3--3--3----5-5-5-5-5-5-5
E|---------------------------------------------
                      (2 veces)
G|-----------------------------------------------------|
D|-----------------------------------------------------|
A|-7--7--7--7---5---7--------7--7--7--7---3---5--------|
E|-----------------------------------------------------|

G|-----------------------------------------------------|
D|-----------------------------------------------------|
A|-7--7--7---------------------------------------------|
E|-----------------0------------------------0----------|

Ojo animal (Pappo-Moro)

Esperando estás una noche más,
recibir tu víctima fatal;
hay una especie de tremenda facultad,
dentro de tu ojo animal.

Ojo animal, nunca su secreto contará,
nunca su secreto...

No habla más, no ríe más, tomó su posición,
en horas de la luna alguien va;
al recibir su conclusión y al dejar de existir,
la piel de los demonios va a ocupar.

Ojo animal, nunca su secreto contará,
nunca su secreto...

Veo pasar al animal con tanta frialdad,
las trampas de aquel hipnotizador;
un resplandor hoy puedo ver, ya amaneció,
su huella en la tiniebla hoy se vio.

Ojo animal, nunca su secreto contará,
nunca su secreto...

Mientras su musica se siga tocando y escuchando el carpo jamas morira,
vivira eternamente en la memoria de todos...
e-mail: zarathustra4321@

            
            
Suggest correction
Creating personal tab
Creating personal tab
You can edit any tab online and save it as your Personal.

You can edit, replace or remove any tab part or add personal notes – all changes will be seen only by you.

Personal tabs can be accessed anytime from any device, even offline.
Learn more »
Give kudos to tab author, rate the tab!
1 2 3 4 5
comments
print report bad tab
guest
Wanna post a correction for this tab? Suggest correction