Oops, an error
Loading. Please wait.

Reza Duro bass

by Riff
88 views 1 this week
no commentswrite comment
1 2 3 4 5
3 more votes to show rating
add to favorites
×
Save as Personal and add changes to this tab that will be seen only by you. Learn more ›
×
You can save this tab as Personal to edit and correct it or add notes. All changes will be seen only by you. Learn more »
launch autoscroll
font size
0
reset
guitar tuner
edit
Autoscroll
slow
fast
+/-
esc
set tempo
stop
0:17
G|--------------------------------
D|--------------------------------
A|--------------------------------
E|-0------------------------------

          ?Vamos lo siento?             ?tu fuiste quien fue?       \
G|----------------------------------------------------------------  |
D|----------------------------------------------------------------  |
A|-----------------3-3-3-3-3-3-3-3--------------------------------  |
E|-5-5-5-5-5-5-5-5-----------------3-3-3-3-3-3-3-3-1-1-1-1-1-1-1-1  |
                                                                    |
          ?por eso te echamos, de nuestras tierra?                  |
G|----------------------------------------------------------------  | Parte
D|----------------------------------------------------------------  |   A
A|-5-5-5-5-5-5-5-5---------------------------------3-3-3-3-3-3-3-3  |
E|-----------------1-1-1-1-1-1-1-1-5-5-5-5-5-5-5-5----------------  |
                                                                    |
          ?y bajo la esfera de toda creación?                       |
G|----------------------------------------------------------------  |
D|----------------------------------------------------------------  |
A|---------------------------------5-5-5-5-5-5-5-5-5-5-5-5-5-5-5-5  |
E|-3-3-3-3-3-3-3-3-1-1-1-1-1-1-1-1--------------------------------  /


            (4 veces)
  ?no es necesario recurrir?
G|--------------------------------|
D|--------------------------------| Parte
A|-------------1---------------1--|   B
E|-1-0-0-3-1-0---3-1-0-0-3-1-0----|

          ?tu cancion no es igual?
G|------------------------------------------------
D|---------------------------------7-5---5--------
A|-------------------------------------7---8-5-8-7
E|-6-6-6-6-6-6-6-6-8-8-8-8-8-8-8-8----------------

          ?oh oh  oh   ohoooo?
G|--------------------------------
D|--------------------------------
A|--------------------------------
E|-6-6-6-6-6-6-6-6-8-8-8-8-8-8-8-8

Repite parte B, A. Despues:

1:48
            (4 veces)
G|-------------------------------|
D|-------------------------------|
A|-0-0-0-0-0-3--1-1-1-1-1-1-3-3-3|
E|-------------------------------|

Repite parte B (6 vueltas). Despues:

          ?en nombre de cristo?           ?prefieres hablarme?
G|----------------------------------------------------------------
D|----------------------------------------------------------------
A|-----------------3-3-3-3-3-3-3-3--------------------------------
E|-5-5-5-5-5-5-5-5-----------------3-3-3-3-3-3-3-3-1-1-1-1-1-1-1-1

          ?y no lo consigues, no no no, por eso te imploro?
G|----------------------------------------------------------------
D|----------------------------------------------------------------
A|-5-5-5-5-5-5-5-5---------------------------------3-3-3-3-3-3-3-3
E|-----------------1-1-1-1-1-1-1-1-5-5-5-5-5-5-5-5----------------

          ?tienes un opcion, reza?
G|--------------------------------
D|--------------------------------
A|--------------------------------
E|-3-3-3-3-3-3-3-3-1-1-1-1-1-1-1-1

duro?                     ?rezar muy duro?          \
G|------------------------------------------------  |
D|------------------------------------------------  |
A|-5-5-5-5-5-5-5-5--------------------------------  |
E|-----------------1-1-1-1-1-1-1-1-5-5-5-5-5-5-5-5  | Parte
                                                    |   C
G|------------------------------------------------  |
D|------------------------------------------------  |
A|-3-3-3-3-3-3-3-3--------------------------------  |
E|-----------------3-3-3-3-3-3-3-3-1-1-1-1-1-1-1-1  |
                                                    /

Repite parte C (4 veces). Despues:

G|-----------------------------------------------------
D|-----------------------------------------------------
A|-5-5-5-5-5-5-5-5-5-5-5-5-5-5-5-5---------------------
E|-----------------------------------------------------

Reza duro (Boff-Pappo-Peyronel-Vitico)

Vamos bosquejo, tú fuiste quién fue,
por eso te echamos de nuestras tierras,
y bajo la esfera de toda creación...

No es necesario recurrir a conceptos
tan abstractos para tratar de comunicarse,
lo material te convirtió en un sorete.

Tu canción no es igual,
oh, oh, oh; oh, oh.

Lo desconocido te tiene apartado,
los obstáculos son cada vez más difíciles;
frases fáciles de obtener y difíciles de comprender.

Buscando el reencuentro en fuerzas ocultas,
las leyes del tiempo no la aceptaron, oh, oh.

En nombre de Cristo, pretendes hablarme,
y no lo consigues, no, no, no;
por eso te imploro, tienes una opción,
reza duro, rezar muy duro, oh, oh, oh;
reza duro, tú tienes una opción,


reza duro, oh, oh; tú tienes una opción,
reza duro, oh, oh...

Mientras su musica se siga tocando y escuchando el carpo jamas morira,
vivira eternamente en la memoria de todos.

            
            
Suggest correction
Creating personal tab
Creating personal tab
You can edit any tab online and save it as your Personal.

You can edit, replace or remove any tab part or add personal notes – all changes will be seen only by you.

Personal tabs can be accessed anytime from any device, even offline.
Learn more »
Give kudos to tab author, rate the tab!
1 2 3 4 5
comments
print report bad tab
guest
Wanna post a correction for this tab? Suggest correction