Oops, an error
Loading. Please wait.

Satiros Sueltos bass

by Riff
229 views 1 this week
no commentswrite comment
1 2 3 4 5
3 more votes to show rating
add to favorites
×
Save as Personal and add changes to this tab that will be seen only by you. Learn more ›
×
You can save this tab as Personal to edit and correct it or add notes. All changes will be seen only by you. Learn more »
launch autoscroll
font size
0
reset
guitar tuner
edit
Autoscroll
slow
fast
+/-
esc
set tempo
stop
No es un tema difícil. Puse todas las notas de relleno por las dudas
Los guiones marcan el comienzo de cada compas.

   -                 -                        -
G|-----------------------------------------------------------------
D|-----------------------------------------------------------------
A|-------------5-5----------------5-5-5-5------------------5-5-5---
E|-5---0---5---------5---0-0---5------------5-5---0---5-5---------5

  -                    -                   -
G|--------------------------------------------------------------
D|--------------------------------------------------------------
A|------------5-5-5---------------5-5-5-----------------5-5-5---
E|-5---0---5---------5-5---0---5---------5-5---0---5-5---------5

   -                     -                     -
?Señora no deje a sus hijos con los?   ?porque ellos son distintos?
G|-----------------------------------------------------------------
D|-----------------------------------------------------------------
A|-----------------------5---0---5---0-0-0-5---7-------7-------7---
E|-5---0---5-5---0-0-6-0---------------------0-----7--------7-----5

   -                   -                -
?va?                ?hay muchos delincuentes que usan?
G|-------------------------------------------------------
D|-------------------------------------------------------
A|-------------5-7-5-7---------------------------5--0-0-5
E|-5---0---5-----------5---0---5--0-0-5/10---5-----------

   -                   -                       -
?su traje escoces?
G|-------------------------------------------------------------------
D|-------------------------------------------------------------------
A|-7-------7-------7----------------5-5-5-5-----------------5-5-5----
E|-----7-------7-7---5-5---0---5-5-----------5-5---0---5-5----------5

   -                  -                   -
?ayer vi pasar a su hija?           ?parece que no es la misma?
G|-----------------------------------------------------------
D|-----------------------------------------------------------
A|--------------------5---0---5---0--5--6-7-------7------7---
E|-5---0---5---0-0-6--------------------------7-------7-----5

   -                 -                  -
?fue?                ?ahora usa ropa y perfume?
G|---------------------------------------------------------
D|---------------------------------------------------------
A|--------------------------------------5---0---5--0--5--5-
E|-5---0---5---0---5-5---0---5--0-0-5-0--------------------

   -                  -                       -
?mira de costado?
G|------------------------------------------------------------------
D|------------------------------------------------------------------
A|-7-------7------7----------------5-5-5-5-----------------5-5-5----
E|----7-------7-----5-5---0---5-5-----------5-5---0---5-5----------5

   -                       -
                  ?satiros sueltos?                    (4 veces)
G|---------------------------------------------|-----------------------|
D|---------------------------------------------|-----------------------|
A|--------------5-5-5-5-----------------5-5-5--|-----------------------|
E|-5---0---5-5-----------5-5---0---5-5---------|-3---3---5-------------|

   -                     -                  -
G|------------------------------------------------------------------
D|------------------------------------------------------------------
A|-----------------------5---0---5---0---5--7-7-7-7------7------7---
E|-5---0---5-5---0-0-6-0-----------------------------7-------7-----5

   -                     -                   -
                    ?cruzandomela el otro dia por el supermercado?
G|--------------------------------------------------------------
D|--------------------------------------------------------------
A|-------------0-5-7-5-7---------------------5---0---5---0-0-5-5
E|-5---0--0-5------------5---0--0-5--0-0-5-0--------------------

   -                  -               -                 -
?vestia un traje rojo,a todo color, llevaba un carro lleno de bebidas?
G|-----------------------------------------------------------------------
D|-----------------------------------------------------------------------
A|-7-------7------7----------------------------------------------5---0--5
E|-----7-------7----5-5---0---5----0--5---0--0-5--0-0-5/10---5-----------

   -                  -                   -
?se habia puesto tacos altos por?     ?que buscan estos villanos?
G|------------------------------------------------------------
D|------------------------------------------------------------
A|-7-------7------7-------------------------------------------
E|-----7-------7----5-5---0--0-5----0--0--5---0--0-5---0-0-5-0

   -                 -                 -
?princesas? ?quizas encuentren en ellas?      ?satisfacción?
G|---------------------------------------------------------
D|---------------------------------------------------------
A|-5---0---5---0--5--7-------7------7--------------5-5--4-5
E|-----------------------7-------7-----5---0--0-5----------

   -                   -
G|--------------------------------------
D|--------------------------------------
A|------------5-0--5-6-7-------7------7-
E|-5---0---5---------------7------7-7---

   -                       -                     -
               ?satiros sueltos?     ?satisfacción?
G|-----------------------------------------------------------------------
D|-----------------------------------------------------------------------
A|-------------5-5-5-5-5---------------5-5-5-5-5--------------5-5-5-5-5-5
E|-5---0--5-5------------5-5---0--5-5------------5--0-0--5-5-------------

   -                       -                    -
               ?satisfacción?                ?señora, cuide a la nena?
G|--------------------------------------------------------------------
D|--------------------------------------------------------------------
A|-------------5-5-5-5-5---------------5-5-5-----------------5-5-5-5-5
E|-5---0--5-5------------5-5---0--5-5---------5-5--0-0--5-5-----------

   -                      -                        -
             ?un mono, la trataría mejor?                 ?satisfaccion?
G|-----------------------------------------------------------------------
D|-----------------------------------------------------------------------
A|--------------5-5-5-5-5--------------5-5-5-5-5-5--------------5-5-5-5-5
E|-5--0-0--5-5------------5--0-0--5-5--------------5--0-0--5-5-----------

   -                      -                       -
                ?satisfacción?        ?satisfacción?            ?animales
G|-----------------------------------------------------------------------
D|-----------------------------------------------------------------------
A|--------------5-5-5-5-5-------------5-5-5-5-5-5---------------5-5-5-5-5
E|-5--0-0--5-5------------5--0-0--5-5-------------5---0-0--5-5-----------

   -                      -                      -
sueltos?                          ?peyroneles sueltos?   ?satisfacción?
G|---------------------------------------------------------------------
D|---------------------------------------------------------------------
A|--------------5-5-5-5-5--------------5-5-5-5-5--------------5-5-5-5-5
E|-5--0-0--5-5------------5--0-0--5-5------------5--0-0--5-5-----------

   -                      -                    -
                                    ?un mono?
G|-------------------------------------------------------------------
D|-------------------------------------------------------------------
A|--------------5-5-5-5-5--------------5-5-5-5-----------------------
E|-5--0-0--5-5------------5--0-0--5-5----------5---------------------


/: slide up (?arrastrar? hacia adelante)

Satiros sueltos (Boff-Pappo-Peyronel-Vitico)

Señora no deje a su hija con los delincuentes,
porque ellos son distintos y eso no va;
hay muchos delincuentes que usan camisa y corbata,
y dejan que les brille su traje escocés.

Ayer vi pasar a su hija de quince años,
parece que no es la misma desde que se fue;
ahora usa ropa y perfume importado,
y me mira de costado cuando usted no la ve.

Sátiros sueltos...

Cruzándola el otro día por el superpercado,
vestía un traje rojo, a todo color;
llevaba un carro lleno de bebidas blancas,
se había puesto tacos altos por primera vez.

Qué buscan estos villanos con estas princesas,
quizás encuentren en ellas satisfacción;
satisfacción, satisfacción,
sátiros sueltos, satisfacción.

Hey... señora, cuide a la nena,
un mono... la trataría mejor.

Sátiros sueltos, satisfacción,
satisfacción, satisfacción,
animales sueltos, satisfacción,
Peyroneles sueltos, satisfacción,

Un mono...

Mientras su musica se siga tocando y escuchando el carpo jamas morira,
vivira eternamente en la memoria de todos.

            
            
Suggest correction
Creating personal tab
Creating personal tab
You can edit any tab online and save it as your Personal.

You can edit, replace or remove any tab part or add personal notes – all changes will be seen only by you.

Personal tabs can be accessed anytime from any device, even offline.
Learn more »
Give kudos to tab author, rate the tab!
1 2 3 4 5
comments
print report bad tab
guest
Wanna post a correction for this tab? Suggest correction