Oops, an error
Loading. Please wait.

Sordidez tab

by Riff
49 views 1 this week
no commentswrite comment
1 2 3 4 5
3 more votes to show rating
add to favorites
×
Save as Personal and add changes to this tab that will be seen only by you. Learn more ›
×
You can save this tab as Personal to edit and correct it or add notes. All changes will be seen only by you. Learn more »
launch autoscroll
font size
0
reset
how to read this tab
guitar tuner
edit
Autoscroll
slow
fast
+/-
esc
set tempo
stop
Intro: Riff 1 x2
       Riff 2 x2

Riff 1:
 D5                 E5
e-----------------/------------------
B-----------------/------------------
G---1-1---1---2h1-/----1-1---2h1---1-
D-4-----4---4-----/-4-4----4-----4---
A-----------------/------------------
E-----------------/------------------

Riff 2: Es el riff 1 pero solo con E5
  E5                E5
e-----------------/------------------
B-----------------/------------------
G---1-1---1---2h1-/----1-1---2h1---1-
D-4-----4---4-----/-4-4----4-----4---
A-----------------/------------------
E-----------------/------------------

Riff 3
 B5  D5  B5   D5
e----------------
B----------------
G-4--7-7/4-4--7-7
D-4--7-7/4-4--7-7
A-2--5-5/2-2--5-5
E----------------

Riff 3                                           Riff 2
Llega el amanecer,y me pregunto ¿Usted quién es?
¿Qué es lo que hace aquí?,¿Qué es lo que quiere usted de mí?

Riff 4:
 A5                D5      A5
e---------------------------------------
B---------------------------------------
G-2--5-4-2--5-4-2---7-7-5---2-2---------
D-2--5-4-2--5-4-2---7-7-5---2-2---------
A-0-----------------5-5-5---0-0---------
E-------------------------------3-4-5---

Riff 5
  A5                D5      A5  B5 D5 A5 E5
e-----------------------------/-------------
B-----------------------------/-------------
G-2--5-4-2--5-4-2---7-7-5-----/-----7-------
D-2--5-4-2--5-4-2---7-7-5--7--/--9--7--7--2-
A-0-----------------5-5-5--7--/--9--5--7--2-
E--------------------------5--/--7-----5--0-


Riff 4
Vayasé, usted es un fantasma que no quiero ver;
Riff 4
sordidez, de todo aquello que pasó una vez;
Riff 4
parte de, muchas cosas que no pueden ser;
Riff 5
mejor que, no vuelva nunca y me deje ser.

Riff 2 x2

Muy dentro de mi ser, hay cosas que no quiero ver,
tal vez porque ya sé, que nunca las voy a entender.

Vayasé, usted es un fantasma que no quiero ver;
sordidez, de todo aquello que pasó una vez;
parte de, muchas cosas que no pueden ser;
mejor que, no vuelva nunca y me deje ser.

Riff 6: X2
 D5                 E5
e-3-3-(2)--2-2-(0)-/---
B-3-3-(3)--3-3-(3)-/---
G------------------/---
D----------------X4/-2-
A------------------/-2-
E------------------/-0-

Solo:

Post solo: Riff 1 x2
           Riff 2 x2

Riff 3                                           Riff 2
Llega el amanecer,y me pregunto ¿Usted quién es?
¿Qué es lo que hace aquí?,¿Qué es lo que quiere usted de mí?

Riff 4
Vayasé, usted es un fantasma que no quiero ver;
Riff 4
sordidez, de todo aquello que pasó una vez;
Riff 4
parte de, muchas cosas que no pueden ser;
Riff 4
mejor que, no vuelva nunca y me deje ser.

Riff 4
Vayasé, usted es un fantasma que no quiero ver;
Riff 4
sordidez, de todo aquello que pasó una vez;
Riff 4
parte de, muchas cosas que no pueden ser;
Riff 5
mejor que, no vuelva nunca y me deje ser.

Fin:
D5-A5-E5 x4
D5-A5 x12
E5

            
            
Suggest correction
Creating personal tab
Creating personal tab
You can edit any tab online and save it as your Personal.

You can edit, replace or remove any tab part or add personal notes – all changes will be seen only by you.

Personal tabs can be accessed anytime from any device, even offline.
Learn more »
Give kudos to tab author, rate the tab!
1 2 3 4 5
comments
print report bad tab
guest
Wanna post a correction for this tab? Suggest correction