Oops, an error
Loading. Please wait.

Tiempo Distante bass

by Riff
24 views 1 this week
no commentswrite comment
1 2 3 4 5
3 more votes to show rating
add to favorites
×
Save as Personal and add changes to this tab that will be seen only by you. Learn more ›
×
You can save this tab as Personal to edit and correct it or add notes. All changes will be seen only by you. Learn more »
launch autoscroll
font size
0
reset
guitar tuner
edit
Autoscroll
slow
fast
+/-
esc
set tempo
stop
(el bajo empieza entre el 8vo y 9no golpe del tambor)

G|--------------------------------------------------------------------
D|--------------------------------------------------------------------
A|--------------------------------------------------------------------
E|-0---0------------0---0------------0---0------------0---0-----------

G|--------------------------------------------------------------------
D|--------------------------------------------------------------------
A|--------------------------------------------------------------------
E|-0---0------------0---0------------0---0------------0---0-----------
?El tiempo puede estar bien?       ?nunca?
G|--------------------------------------------------------------------
D|--------------------------------------------------------------------
A|-7----------------5----------------7-------------5------------------
E|----------------------------------------------3-----5-------------3-
te dejare de amar?                   ?yo nunca?
G|--------------------------------------------------------------------
D|--------------------------------------------------------------------
A|-5-------------5-------------------5-------------5------------------
E|------0-----3-----5-------------3-------0-----3-----5-------------3-
te dejare de amar?
G|---------------------------------------------
D|---------------------------------------------
A|-5-------------5-------------------5---------
E|------0-----3-----5-------------3------------

G|--------------------------------------------------------------------
D|--------------------------------------------------------------------
A|--------------------------------------------------------------------
E|-0---0------------0---0------------0---0------------0---0-----------
?El sol puede perder su luz?       ?nunca?
G|--------------------------------------------------------------------
D|--------------------------------------------------------------------
A|-7----------------5----------------7-------------5------------------
E|----------------------------------------------3-----5-------------3-
te dejare de amar?                   ?yo nunca?
G|--------------------------------------------------------------------
D|--------------------------------------------------------------------
A|-5-------------5-------------------5-------------5------------------
E|------0-----3-----5-------------3-------0-----3-----5-------------3-
te dejare de amar?
G|---------------------------------------------
D|---------------------------------------------
A|-5-------------5-------------------5---------
E|------0-----3-----5-------------3------------
(empieza el solo de guitarra)
G|-----------------------------------------------------------------
D|-----------------------------------------------------------------
A|-0-0-0-0-0-0-0-0-0-0-0-0-0-0-0-0---------------------------------
E|---------------------------------7-7-7-7-7-7-7-7-7-7-7-7-7-7-7-7-
(1:25)
G|-----------------------------------------------------------------
D|-----------------------------------------------------------------
A|-5-5-5-5-5-5-5-5-5-5-5-5-5-5-5-5-0-0-0-0-0-0-0-0-0-0-0-0-0-0-0-0-
E|-----------------------------------------------------------------
(1:40)
G|-----------------------------------------------------------------
D|-----------------------------------------------------------------
A|-0-0-0-0-0-0-0-0-0-0-0-0-0-0-0-0-0-0-0-0-0-0-0-0-0-0-0-0-0-------
E|-----------------------------------------------------------------
               (2 veces)
G|----------------------------------------|-------|
D|----------------5-----------------------|-------|
A|------5--7--5-7-----------5--7--5-7-----|-------|
E|-0-------------------0--------------0---|-0---0-|
(2:13)
G|--------------------------------------------------------------------
D|--------------------------------------------------------------------
A|--------------------------------------------------------------------
E|-0---0------------0---0------------0---0------------0---0-----------
?No se si algun dia comprenderas?  ?nunca?
G|--------------------------------------------------------------------
D|--------------------------------------------------------------------
A|-7----------------5----------------7-------------5------------------
E|----------------------------------------------3-----5-------------3-
te dejare de amar?                   ?yo nunca?
G|--------------------------------------------------------------------
D|--------------------------------------------------------------------
A|-5-------------5-------------------5-------------5------------------
E|------0-----3-----5-------------3-------0-----3-----5-------------3-
te dejare de amar?
G|--------------------------------------------------------------------
D|--------------------------------------------------------------------
A|-5-------------5-------------------5--------------------------------
E|------0-----3-----5-------------3-----------------------------------

G|------------------------------------------------------------------------
D|------------------------------------------------------------------------
A|-7----------------------------------------------------7/d---------------
E|------------------------------------------------------------------------

Tiempo distante (Pappo-Boff)

El tiempo puede estar bien o mal,
o llega la destrucción total;
pero yo nunca... te dejaré de amar,
yo nunca... te dejaré de amar.

El sol puede perder su luz,
o el mar su color azul;
pero yo nunca... te dejaré de amar,
yo nunca... te dejaré de amar.

No se si algún día comprenderás,
que no te puedo dejar de amar;
yo nunca... te dejaré de amar,
yo nunca... te dejaré de amar

Mientras su musica se siga tocando y escuchando el carpo jamas morira,
vivira eternamente en la memoria de todos...
e-mail: zarathustra4321@

            
            
Suggest correction
Creating personal tab
Creating personal tab
You can edit any tab online and save it as your Personal.

You can edit, replace or remove any tab part or add personal notes – all changes will be seen only by you.

Personal tabs can be accessed anytime from any device, even offline.
Learn more »
Give kudos to tab author, rate the tab!
1 2 3 4 5
comments
print report bad tab
guest
Wanna post a correction for this tab? Suggest correction