Oops, an error
Loading. Please wait.

Tigre Hotel bass

by Riff
48 views 1 this week
no commentswrite comment
1 2 3 4 5
3 more votes to show rating
add to favorites
×
Save as Personal and add changes to this tab that will be seen only by you. Learn more ›
×
You can save this tab as Personal to edit and correct it or add notes. All changes will be seen only by you. Learn more »
launch autoscroll
font size
0
reset
guitar tuner
edit
Autoscroll
slow
fast
+/-
esc
set tempo
stop
  Mi
G|---------------------------------------------------------------------
D|---------------------------------------------------------------------
A|---------------------------------------------------------------------
E|-0-0-0-0-0-0-0-0-0-0-0-0-0-0-0-0-0-0-0-0-0-0-0-0-0-0-0-0-0-0-0-0-0-0-...

La
Se abren las puertas de este nuevo local,el tragamonedas empezó a funcionar
G|---------------------------------------------------------------------
D|---------------------------------------------------------------------
A|-0-0-0-0-0-0-0-0-0-0-0-0-0-0-0-0-0-0-0-0-0-0-0-0-0-0-0-0-0-0-0-0-0-0-...
E|---------------------------------------------------------------------

   Re                                La
Vendra mucha gente de todo el lugar,de tierras lejanas listos a apostar
G|---------------------------------------------------------------------
D|-0-0-0-0-0-0-0-0-0-0-0-0-0-0-0-0...----------------------------------
A|-----------------------------------0-0-0-0-0-0-0-0-0-0-0-0-0-0-0-0-0-...
E|---------------------------------------------------------------------

(Se repite la misma estructura de arriba con esta letra)
Mi
Nadie será el mismo después de vencer en este gran hotel,
Nadie sera el mismo en este Tigre hotel
La
Tigre hotel, Tigre Hotel, Tigre hotel
Tigre hotel, Tigre Hotel, Tigre hotel
Re                                 La
Fichas luminosas chicas de tv, hay mucha fortuna en este gran hotel
Mi
Se juega, se juega sin comprender en este tigre hotel,
Se juega, se juega sin comprender hasta el amanecer

(Durante el solo se repite lo mismo: La-Re-La)

  La                       (2 veces)
G|------------------------------------------------------------------|
D|------------------------------------------------------------------|
A|------------------------------------------------------------------|
E|-3/5-5-5-5-5-5-5-3/5-5-5-5-5-5-5-3/5-5-5-5-5-5-5-3/5-5-5-5-5-5-5-5|
   Re
G|-----------------------------------
D|-0-0-0-0-0-0-0-0-0-0-0-0-0-0-0-0...
A|-----------------------------------
E|-----------------------------------
  La
G|------------------------------------------------------------------|
D|------------------------------------------------------------------|
A|------------------------------------------------------------------|
E|-3/5-5-5-5-5-5-5-3/5-5-5-5-5-5-5-3/5-5-5-5-5-5-5-3/5-5-5-5-5-5-5-5|

(Se repite la misma estructura de arriba de todo con esta letra)
Mi
Se juega, se juega sin comprender hasta el amanecer,
Se juega, se juega sin comprender en este tigre hotel
La
Tigre hotel, Tigre Hotel, Tigre hotel
Tigre hotel, Tigre Hotel, Tigre hotel
Re                                 La
La ruleta no es rusa tampoco es facil,aquí se juega hasta el amanecer
Mi
Nadie será el mismo después de vencer en este gran hotel,
Nadie sera el mismo en este Tigre hotel
La
Tigre hotel, Tigre Hotel, Tigre hotel
Tigre hotel, Tigre Hotel, Tigre hotel

Aclaracion:
Los puntos suspensivos (...) los puse para no poner todas las mismas notas
que se repiten hasta el proximo cambio, el resto no creo que necesite de
aclaraciones.

Mientras su musica se siga tocando y escuchando el carpo jamas morira,
vivira eternamente en la memoria de todos...
e-mail: zarathustra4321@

            
            
Suggest correction
Creating personal tab
Creating personal tab
You can edit any tab online and save it as your Personal.

You can edit, replace or remove any tab part or add personal notes – all changes will be seen only by you.

Personal tabs can be accessed anytime from any device, even offline.
Learn more »
Give kudos to tab author, rate the tab!
1 2 3 4 5
comments
print report bad tab
guest
Wanna post a correction for this tab? Suggest correction