Oops, an error
Loading. Please wait.

Ultra Velocidad bass

by Riff
73 views 1 this week
no commentswrite comment
1 2 3 4 5
3 more votes to show rating
add to favorites
×
Save as Personal and add changes to this tab that will be seen only by you. Learn more ›
×
You can save this tab as Personal to edit and correct it or add notes. All changes will be seen only by you. Learn more »
launch autoscroll
font size
0
reset
guitar tuner
edit
Autoscroll
slow
fast
+/-
esc
set tempo
stop
     (4 veces)
G|----------------|-----------------------------------------
D|----------------|----------------------------------------- Parte
A|-0-0-0-0-0-0-0-5|-0-0-0-5-0-0-0-5-0-0-0-5-0-0-0-0-0-0-0-0-   A
E|----------------|-----------------------------------------

Repite parte A 2 veces mas. Despues:

            (4 veces)                  (8 veces)
?mi imagen distorsiona en ultra?
G|--------------------------------|----------------|
D|--------------------------------|----------------| Parte
A|-2-2-2-2-0-0-0-0----------------|----------------|   B
E|-----------------3-3-3-3-3-3-3-3|-2-5-2-5-2-5-2-5|

G|-------------
D|-------------
A|-5-----0|2---
E|-------------

Repite parte A 2 veces. Despues:

1:57              (4 veces)
G|--------------------------------------------|
D|--------------------------------------------| Parte
A|-------2-------------2---------7-7-7-7-7-7-7|   C
E|-0-2-3----0-3-0--2-3----0-3-0---------------|

G|-----------------------------------
D|-----------------------------------
A|-----------------------------------
E|-0-0-0-0-0-0-0-0-0-0-0-0-0-0-0-0-?-

Repite parte C, A 2 veces, B. Despues:

Final
G|-----------------------
D|-----------------------
A|-5------3-3|2--0-------
E|-----------------------

x|x : tocar las dos notas consecutivamente rápido por Ej. 3|2

Atencion: La afinacion de este tema esta medio semitono mas grave que
la comun (La 440)

Ultra velocidad (Pappo-Peyronel)

No pienso en lo que siento,
no pienso en lo que soy,
si me despierta el viento,
se que a algún lado voy.

No me interesa dónde,
no me interesa qué,
sólo me importa a cuántas,
millas por hora iré.

Mi imagen distorsiona en ultra-velocidad,
mi mente reacciona en ultra-velocidad,
Uh, uh, uh,
uh, uh, en ultra-velocidad.

Entonces voy perdiendo,
la conexión astral,
la realidad da vueltas,
y no las puedo parar.

Mis manos atraviesan,
a un monstruo de metal,
ya nada me detiene,
estoy de vuelta acá.

Mientras su musica se siga tocando y escuchando el carpo jamas morira,
vivira eternamente en la memoria de todos.

            
            
Suggest correction
Creating personal tab
Creating personal tab
You can edit any tab online and save it as your Personal.

You can edit, replace or remove any tab part or add personal notes – all changes will be seen only by you.

Personal tabs can be accessed anytime from any device, even offline.
Learn more »
Give kudos to tab author, rate the tab!
1 2 3 4 5
comments
print report bad tab
guest
Wanna post a correction for this tab? Suggest correction