Oops, an error
Loading. Please wait.

Verguenza Ajena bass

by Riff
67 views 1 this week
no commentswrite comment
1 2 3 4 5
3 more votes to show rating
add to favorites
×
Save as Personal and add changes to this tab that will be seen only by you. Learn more ›
×
You can save this tab as Personal to edit and correct it or add notes. All changes will be seen only by you. Learn more »
launch autoscroll
font size
0
reset
guitar tuner
edit
Autoscroll
slow
fast
+/-
esc
set tempo
stop
No es un tema difícil. Puse todas las notas de relleno por las dudas

G|------------------------------------------------------
D|--------------------4--------------------------4------
A|-------4---------------7--4-------4---------------7--4
E|-0--------7--0-5------------0--------7--0-5-----------

G|------------------------------------------------------
D|-------------------4-4-4-----------------------4-4----
A|-------4-----------------7--------4----------------7--
E|-0--------7--0-5------------0--------7--0-5-----------

?Yo no quiero ser el que te diga que esta bien y que esta mal?
G|-------------------------------------------------------
D|--------------------4-4-----------------------4-4-4----
A|-------4----------------7---------4-----------------7--
E|-0--------7--0-5------------0--------7--0-5------------

?porque como siempre vas a hacer lo que quieras igual?
G|------------------------------------------------------
D|-------------------4-4-4-----------------------4-4----
A|-------4-----------------7--------4----------------7--
E|-0--------7--0-5------------0--------7--0-5-----------

?yo no quiero ser el que este en medio entre tu enfermedad?
G|-------------------------------------------------------
D|-------------------------------------------------------
A|-3---------3-4-5--------------------------3-----3-3-3-3
E|----------------------------3-------3--3---------------

?yo no quiero ser ese nunca mas?                   ?nunca
G|-------------------------------------------------------
D|-------------------------------------------------------
A|---------------3--3-3-3-3-3----------------3--3-3-3-3-3
E|-3----3-3-3--3--------------3----3-3-3-3-3-------------

mas?
G|---------------------------
D|---------------------------
A|---------------3--3-3-3-3-3
E|-3---3-3-3-3-3-------------

?la tomo con calma, mejor salvar mi alma, hay cosas que?
G|------------------------------------------------------
D|--------------------4-4------------------------4-4----
A|---------4--------------7---------4----------------7--
E|-0---------7-0-5------------0--------7--0-5-----------

?llega la mañana y no puede ser peor a menos que se ponga?
G|-------------------------------------------------------
D|--------------------4-4-----------------------4-4-4----
A|-------4----------------7--------4------------------7--
E|-0--------7--0-5------------0--------7--0-5------------

?aparte de una gran pena siento en este momento por ti?
G|-------------------------------------------------------
D|-------------------------------------------------------
A|-3---3-3---3-4-5---5-5----5------------5--3-------3-3-3
E|----------------------------3----3-3-3---3-------------

?vergüenza ajena?          ?vergüenza ajena?
G|-------------------------------------------------------
D|-------------------------------------------------------
A|---------------3--3-3-3--3-----------------3---3-3--3--
E|-3-------3-3-3--------------3----3-3-3---3-------------

G|------------------------------------------------------
D|------------------4-4-4------------------------4-4----
A|-------4----------------7---------4----------------7--
E|-0--------7--0-5-----------0---------7--0-5-----------

G|----------------------------------------------------------------------------
D|-------------------4-4-4----------------------------------------------------
A|-------4-----------------7--3--3-3-3--3-4-5---5-5-5-5-5---------------------
E|-0--------7--0-5----------------------------------------0-------------------

G|------------------------------------------------------
D|-------------------4-4-4-----------------------4-4----
A|-------4-----------------7--------4----------------7--
E|-0--------7--0-5------------0--------7--0-5-----------

G|------------------------------------------------------
D|-------------------4-4-4-----------------------4-4----
A|-------4-----------------7--------4----------------7--
E|-0--------7--0-5------------0--------7--0-5-----------

?la tomo con calma, mejor salvar mi alma, hay cosas que?
G|------------------------------------------------------
D|-------------------4-4-4---------------------4-4-4----
A|-------4-----------------7--------4----------------7--
E|-0--------7--0-5------------0--------7--0-5-----------

?llega la mañana y no puede ser peor a menos que se ponga?
G|------------------------------------------------------
D|---------------------4-4-----------------------4-4----
A|-------4-----------------7--------4----------------7-7
E|-0--------7--0-5------------0--------7--0-5-----------

?aparte de una gran pena siento en este momento por ti?
G|-------------------------------------------------------
D|-------------------------------------------------------
A|-3---3-3-----3-5--5-5-5-5-5--------5--5---3-----3-3-3-3
E|----------------------------3----3------3--------------

?vergüenza ajena?          ?vergüenza ajena?
G|-------------------------------------------------------
D|-------------------------------------------------------
A|---------------3--3-3-3--3-----------------3---3-3--3--
E|-3----3-3-3--3--------------3----3-3-3---3-------------

?vergüenza ajena?          ?vergüenza ajena?
G|-------------------------------------------------------
D|-------------------------------------------------------
A|---------------3---3-3--3------------------3---3-3--3--
E|-3----3-3----3--------------3----3-3-----3-------------

?vergüenza ajena?
G|----------------------------------------------------------------------------
D|-----------------------------------------------------------5----------------
A|---------------3---3-3--3---0-0-0-0-0---0--0-0-0-0-0------------------------
E|-3----3-3----3-----------------------------------------3-------3------------

Vergüenza ajena (Boff-Pappo-Peyronel-Vitico)

Yo no quiero ser el que te diga
qué está bien y qué está mal;
porque como siempre vas a hacer
lo que quieras igual.

Yo no quiero ser el que esté en el medio,
entre tu enfermedad y el remedio;
yo no quiero ser ese, nunca más,
nunca más.

La tomo con calma, mejor salvar mi alma,
hay cosas que mejor no hacer;
llega la mañana y no puede ser peor,
a menos que se ponga a llover.

Aparte de una gran pena,
siento en este momento por ti,
vergüenza ajena,
vergüenza ajena.

Mientras su musica se siga tocando y escuchando el carpo jamas morira,
vivira eternamente en la memoria de todos.

            
            
Suggest correction
Creating personal tab
Creating personal tab
You can edit any tab online and save it as your Personal.

You can edit, replace or remove any tab part or add personal notes – all changes will be seen only by you.

Personal tabs can be accessed anytime from any device, even offline.
Learn more »
Give kudos to tab author, rate the tab!
1 2 3 4 5
comments
print report bad tab
guest
Wanna post a correction for this tab? Suggest correction