Oops, an error
Loading. Please wait.

Zona De Nadie bass

by Riff
101 views 1 this week
no commentswrite comment
1 2 3 4 5
3 more votes to show rating
add to favorites
×
Save as Personal and add changes to this tab that will be seen only by you. Learn more ›
×
You can save this tab as Personal to edit and correct it or add notes. All changes will be seen only by you. Learn more »
launch autoscroll
font size
0
reset
guitar tuner
edit
Autoscroll
slow
fast
+/-
esc
set tempo
stop
                      (2 veces)
G|-------------------------------------------------------|
D|-------------------------------------------------------|
A|-----7---5----2--3-3-----3-2-----7---5--2-3---3-3-5-5-5|
E|-0-0---0---------------0-----0-0---0-------------------|

                        (2 veces)                                  \
?Sin rumbo ni destinacion andamos por las lineas?                  |
G|---------------------------------------------------------------| |
D|---------------------------------------------------------------| |
A|-----2---3-------2---2---3---5-7-----2---3-------2---2-3----3-2| |
E|-0-0---0---0-0-0---0---0---0-----0-0---0---0-0-0---0------0----| |
                                                                   |Parte
     ?no hay reglas ni definición en esta zona ambigua?            |  A
G|-------------------------------------------------------------    |
D|-------------------------------------------------------------    |
A|-----2---3-------2---2---3---5-7-----2---3-------2---2-3---5-    |
E|-0-0---0---0-0-0---0---0---0-----0-0---0---0-0-0---0---------    |
                                                                   /

        ?zona de nadie?   ?donde nadie va?                       \
G|--------------------------------------------------------       |
D|---------------------------------------------5----------       |
A|-3--3-3-3-3-3-3-5--5-5-5-5-5-5-7-7-7----5---------7----5       |
E|--------------------------------------------------------       |
                                                                 |Parte
        ?solo espera la verdad?                                  |  B
G|-------------------------------------------------------------  |
D|-------------------------------------------------------------  |
A|-3--3-3-3-3-3-3-5--5-5-5-5-5-5-----7-----7-----7-----7---7-7-  |
E|-------------------------------0-0---0-0---0-0---0-0---------  |
                                                                 /

                 (2 veces)
?en la ciudad terminal?  ?vagamos como sombras
G|---------------------------------------------|
D|---------------------------------------------| Parte
A|-7-7-5-5---2--3-3--3--3--3-3-3-3--2--5-------|   C
E|---------------------------------------------|

Repite parte A, B, C.

                     (3 veces)
G|-----------------------------------------------------|
D|-----------------------------------------------------| Parte
A|-----7--5---2--3-3--3---3-2-----7--5----3-3---3-3-5-5|  D
E|-0-0------------------0-----0-0----------------------|

G|-------------------------------------------------------------------------
D|-------------------------------------------------------------------------
A|-----7--5---2--3-3--3---3-2-----7--5----3-3-3-3-3-3-3-3-3-3-3-3-3-3-3--3-
E|-0-0------------------0-----0-0------------------------------------------

2:52
                   (2 veces)
G|-------------------------------------------------|
D|-------------------------------------------------|
A|-7-7-7-5-----2-2-2-3-----3-3-3-3--2--5-5--5------|
E|-------------------------------------------------|

Repite parte B, C, D (3 veces). Despues:

?voy por la zona de nadie?
G|--------------------------------------------------------------------
D|--------------------------------------------------------------------
A|-----7--5---2--3-3--3---3-2-----7--5----3---------------------------
E|-0-0------------------0-----0-0-------------------------------------

G|-------------------
D|-------------------
A|-------------------
E|-0--0----0---------

Zona de nadie (Pappo-Peyronel)

Sin rumbo ni destinación
andamos por las líneas
no hay reglas ni definición
en esta zona ambigua
zona de nadie donde nadie va
solo espera la verdad

En la ciudad terminal
vagamos como sombras
con un rumor animal
hoy la ciudad nos nombra

Como hijos de un tiempo salvaje
llamamos la atención
prisioneros del viejo coraje
y adictos a la acción

Zona de nadie, zona de pasión
solo hay huellas de emocion-ficcion

En la ciudad terminal
vagamos como sombras
con un rumor animal
hoy la ciudad nos nombra

Voy por la zona de nadie
en la ciudad terminal
voy por la zona de nadie
como un rumor animal

Mientras su musica se siga tocando y escuchando el carpo jamas morira,
vivira eternamente en la memoria de todos.

            
            
Suggest correction
Creating personal tab
Creating personal tab
You can edit any tab online and save it as your Personal.

You can edit, replace or remove any tab part or add personal notes – all changes will be seen only by you.

Personal tabs can be accessed anytime from any device, even offline.
Learn more »
Give kudos to tab author, rate the tab!
1 2 3 4 5
comments
print report bad tab
guest
Wanna post a correction for this tab? Suggest correction