Oops, an error
Loading. Please wait.

Zona De Nadie tab

by Riff
119 views 1 this week
no commentswrite comment
1 2 3 4 5
3 more votes to show rating
add to favorites
×
Save as Personal and add changes to this tab that will be seen only by you. Learn more ›
×
You can save this tab as Personal to edit and correct it or add notes. All changes will be seen only by you. Learn more »
launch autoscroll
font size
0
reset
how to read this tab
guitar tuner
edit
Autoscroll
slow
fast
+/-
esc
set tempo
stop
bueno aca les dejo este temazo
que veo que nadie lo subio todavia
que alguno saque el solo porque ni ganas de sacarlo
aparte que no creo que lo saque...


esto hace cuando arranca la viola sola:

e|-------------------------------------------------|
b|--8-7--3-5---------8-7--3-5-----5/7--7-----------|
g|--9-7--4-5---------9-7--4-5-----5/7--7-----------| x2
d|-------------------------------------------------|
a|-------------------------------------------------|
e|--------------3-2--------------------------------|

dsp arranca la base principal: E5-D5-B5-C5-B5-E5  E5-D5-B5-C5-D5

e|----------------------|---------------------------|
b|----------------------|---------------------------|
g|----------------------|---------------------------| x4
d|--9--7----------------|-9--7----------------------|
a|--7--5-9--10--10--9---|-7--5-9--10-10/12---12-----|
e|-------7--8---8---7-0-|------7--8---8/10---10-----|

mientras la otra viola hace este riff(1)

e|----------------------|---------------------------|
b|--10b-10--7--8--8-----|--10b-10----7--8-----------|
g|----------------------|---------------------------| x4
d|----------------------|---------------------------|
a|----------------------|---------------------------|
e|----------------------|---------------------------|

dsp mientras canta hace este riff(2)


e|-------------------------------------|-------------------------------|
b|-------------------------------------|-------------------------------|
g|-------------------------------------|-------------------------------| x2
d|-------------------------------------|-------------------------------|
a|------2---3--------2---2---3---------|-----2---3-------2-----3---3-2-|
e|--0-0---0---0--0-0---0---0-----0---0-|-0-0---0---0-0-0---0-0---0-----|

"Sin rumbo ni destinacion..."(todo sobre riff 2)

ESTRIBILLO:
C5              D5
    "zona de nadie, donde nadie va..."(ahora hace este riff (3))

e|-------------------------------------------------|
b|-------------------------------------------------|
g|-------------------------------------------------|
d|--------9---7------12----12--9------5------------|
a|--------7---5------10----10--7------3------------|
e|-------------------------------------------------|

C5           D5
    "solo espera la verdad..."(se queda en MI)
E5         D5      B5    C5     C5  B5        D5
 "en la ciudad      terminal     vagamos como sombras
E5         D5      B5  C5     C5        B5       D5
 como un rumor     animal     hoy la ciudad nos nombra"

(y vuelve al riff 2)

"Como hijos de un tiempo salvaje
llamamos la atención
prisioneros del viejo coraje
y adictos a la acción"

(todo lo mismo)

ESTRIBILLO:

"Zona de nadie, zona de pasión
sólo hoy huellas de emoción-ficción
En la ciudad terminal
vagamos como sombras
como un rumor animal
hoy la ciudad nos nombra"

Solo de guitarra con 4 vueltas de la base principal

despues en el corte hace

e|-------------------------------------------------|
b|-------------------------------------------------|
g|-------------------------------------------------| x2
d|---5--7--9--7----7--5--4--5----7--5--4--5--4--7--|
a|---3--5--7--5----5--3--2--3----5--3--2--3--2--5--|
e|-------------------------------------------------|

(repite el ultimo estribillo)

"Zona de nadie, zona de pasión
sólo hay huellas de emoción-ficción
En la ciudad terminal
vagamos como sombras
como un rumor animal
hoy la ciudad nos nombra"

(y termina con la base principal y los coros)

"Voy por la zona de nadie... en la ciudad terminal"
"voy por la zona de nadie... como un rumor animal"

(queda la base en C5 y termina en Mi)

BUENO ESTO VA PARA LOS PELOTUDITOS
QUE LES GUSTA BARDEAR GRATIS
AGUANTE EL CARPO LA PUTA MADRE!

Y AGUANTE FUEGO DE ODEON!

            
            
Suggest correction
Creating personal tab
Creating personal tab
You can edit any tab online and save it as your Personal.

You can edit, replace or remove any tab part or add personal notes – all changes will be seen only by you.

Personal tabs can be accessed anytime from any device, even offline.
Learn more »
Give kudos to tab author, rate the tab!
1 2 3 4 5
comments
print report bad tab
guest
Wanna post a correction for this tab? Suggest correction