Oops, an error
Loading. Please wait.

Gasoline Family Tab

version 1
version 1

Whole song

7,333 views 9 this week
no commentswrite comment
1 2 3 4 5
x 7
add to favorites
launch autoscroll
font size
0
reset
how to read this tab
guitar tuner
Autoscroll
slow
fast
+/-
esc
set tempo
stop
Help us to improve Ultimate-Guitar.com Take our survey!
×
Author
Tuning
D A D G B E
So I don't think I can edit the title but the song is really called Gasoline Family...

Tuning Drop D:


|------------------------------------|
|-------3----------------------------|
|---------------2--------------------|
|-----4-------2----------------4-2---|
|---2-------0---------7-5----0-------|
|-------------------5----------------|

(0:26)
|-------------------------------------------|
|--------3--3p2-----------------------------|
|--------------------2----------------------|
|-----4------------2----2p0-----------4-2---|
|---2------------2------------7-5---0-------|
|---------------------------5---------------|


(0:48)
|-----------------------------------|
|-------3---------------------------|
|-----------------------------------|
|-----4-------4-2---------------0---|
|---2-------0---------7-5-----0-----|
|-------------------5-------0-------|

(1:08)
|----------------------------------|
|-------3--------------------------|
|----------------------------------|
|-----4-------4-2------------4-2---|
|---2-------0--------7-5---0-------|
|------------------5---------------|

(1:30)
|---------------------------------------|
|-------3--3----------------------------|
|-------------------2-------------------|
|-----4-----4-----2---------------4-2---|
|---2--------2--0---------7-5---0-------|
|-----------------------5---------------|

(1:51)
|-----------------------------------|
|-------3---------------------------|
|-----------------------------------|
|-----4-------4-2-------------4-2---|
|---2-------0---------7-5---0-------|
|-------------------5---------------|

(2:13)
|--------------------------------------------------------|
|-------3----2-3-2---------------------------------------|
|--------------------------------------------------------|
|-----4------------4-----4-2----2-4-2-0--------------0---|
|---2------------------0------------------7-5------0-----|
|---------------------------------------5--------0-------|

(2:34)
|--------------------------------------|
|-------3------------------------------|
|--------------------------------------|
|-----4--------4-2---------------4-2---|
|---2--------0----------7-5----0-------|
|---------------------5----------------|

(2:55)
|--------------------------------------------------|
|-------3--2--0------------------------------------|
|-------------------------2------------------------|
|-----4--------------4-2-----2---------------4-2---|
|---2--------------0----------------7-5----0-------|
|---------------------------------5----------------|

(3:16)
|--------------------------------------|
|-------3------------------------------|
|--------------------------------------|
|-----4--------4-2-----------------0---|
|---2--------0----------7-5------0-----|
|---------------------5--------0-------|


(3:37)
|--------------------------------------|
|-------3------------------------------|
|----------------2---------------------|
|-----4--------2-----------------4-2---|
|---2--------0----------7-5----0-------|
|---------------------5----------------|

(3:57)
|----------------------------------------------------------------------------------|
|-------------3------3-3p2---------------------------------------------------------|
|------------------------------2---------------------------------------------------|
|---2-4-2---4--4---4---------2---2---2--2-4-2-------------------4-2-----2--2-4-2---|
|---------2------2---------0-------0------------7-5-----5-7-5-0-----0-0------------|
|---------------------------------------------5-----5-5----------------------------|

(4:21)
|------------------------------------------------------------------------------|
|-------3-------3-2-0----------------------------------------------------------|
|---------------------------------2--------------------------------------------|
|-----4---4---4---------4-2-----2---4-2-------------------4-2------2-2-4-2-----|
|---2-------2---------0-----0-0-----------7-5-----7-5---0-------0----------2---|
|---------------------------------------5-----5-5-----5------------------------|


I will haunt you
Hunt you down down
During the night
And you
You will regret you
Ever stepped
Out of line
They oh they
Will beg me
They will cry
Do you weep
I I won't feel sorry
You can believe me
Can you believe anything
I I can't forget you
I can't forgive what
You did to me
You do you forget why
I've killed myself
Out here at sea
Why why why
To help my family
To help a family
Who's been replacing me
Well i just might
Replace you
With a match stick and gasoline
Suggest correction
comments
print report bad tab
guest
You may want to rate the tab now too:
select rating
Wanna post a correction for this tab? Suggest correction