Oops, an error
Loading. Please wait.

Haunt While I Sleep Tab

2,642 views 3 this week
no commentswrite comment
1 2 3 4 5
x 3
add to favorites
launch autoscroll
font size
0
reset
how to read this tab
guitar tuner
Autoscroll
slow
fast
+/-
esc
set tempo
stop
Help us to improve Ultimate-Guitar.com Take our survey!
×
Author
Difficulty
novice
Capo at 5th fret in normal tuning, 6th fret for E flat tuning (what i play in, 
makes it kind of easier to see where you are.)

He only frets one note at a time, the other notes are all open, and I'm only gonna 
write those once.


e|------------------------------------------------------------------------|
B|---------0----------0----------0------------0---------------------------|
G|----0---------0-----------0-----------0-------------------0-------------|
D|-------0---------0----------2------------0----------0-------------------|
A|--3---------2----------0------------------------------2-----------------|
E|-----------------------------------3--------------0---------------------| so that's the pattern.
for the chorus (just fretted notes, use the picking pattern from above) :

e|-----------(0)-------------------------------------------------------------|
B|---------------------------------------------------------------------------|
G|---------------------------------------------------------------------------|
D|---------2-----------------------------------------------------------------|
A|--3--2------------------3--2-----------------------------------------------|
E|------------------------------0--------------------------------------------|

Suggest correction
Give kudos to tab author, rate the tab!
1 2 3 4 5
comments
print report bad tab
guest
You may want to rate the tab now too:
select rating
Wanna post a correction for this tab? Suggest correction