Oops, an error
Loading. Please wait.

I Wait For You Tab

3,137 views 9 this week
no commentswrite comment
1 2 3 4 5
please rate
add to favorites
launch autoscroll
font size
0
reset
how to read this tab
guitar tuner
Autoscroll
slow
fast
+/-
esc
set tempo
stop
Help us to improve Ultimate-Guitar.com Take our survey!
×
Author
Tuning
D# G# C# F# A# D#
Awesome song. This should include the main parts.

Tuning - Half Step down

Intro/Main riff                        *1st time only ending
eb|-----------------------------------|----|
bb|-----------------------------------|----|
gb|-----------------------------------|----|
db|-----------------------------------|----|
ab|7--4--5--7-5-4--4b5-2--4-5--4-2-4-0|5-4-|
eb|-----------------------------------|----|

Verse- goes like this each line
 I don't really mind the way it feels when you burn my skin
eb|-------------------------------------------------------|
bb|-------------------------------------------------------|
gb|6--------------------------------------1-------------6-|
db|7--------------------------------------2-------------7-|
ab|7--------------------------------------2-------------7-|
eb|5--------------------------------------0-------------5-|
2nd part
  And the skin grows all on its own
eb|--------------------------------|
bb|--------------------------------|
gb|--------------------------------|
db|-----------------------------2--|
ab|-------5----------4----------2--|
eb|-------7----------5----------0--|
   My children just left writing notes    I know  I wait for you
eb|---------------------------------------------------------|
bb|---------------------------------------------------------|
gb|---------------------------------------------------------|
db|-----------------------------2---------------------------|
ab|-------5----------4----------2---------2-2b-----4-5-4-2--|
eb|-------7----------5----------0---------------------------|

These basic parts repeat throughout the song.
Feedback welcome, and it would be cool if people could add to it because there's other 
stuff happening in the song
Suggest correction
Give kudos to tab author, rate the tab!
1 2 3 4 5
comments
print report bad tab
guest
You may want to rate the tab now too:
select rating
Wanna post a correction for this tab? Suggest correction